tablaturas, partituras y acordes para guitarra
Busca por banda/artista:
 
y/o título de la canción:
A B C D E F G H I J K L M N O P Q R S T U V W X Y Z 0 1 2 3 4 5 6 7 8 9 / Top 100 tabs
Categorías
Usuarios
usuario:
Darse de alta
password:
Artistas más visitados
Publicidad
TOP acordes y tablaturas de Beatles


Estás en: Inicio > Letra B > Acordes y tablaturas de Beatles > Ps I Love You 2
Ps I Love You 2
de Beatles
Puntúa este acorde/tab:      
(0.6/5)
Reportar este acorde/tab
  Añadir a tus favoritos
  Imprimir
Beatles - P.S. I love you 
Album: Introducing the Beatles 
 
I'm only tabbing the this part and not the whole song because the other tab
had the right chords 


  G               D             G               D
e|3---------------2-------2-0---3---------------2----|
B|3---------------3-----------0-3---------------3----|
G|0---------------2-------------0---------------2----|
D|0---------------0-------------0---------------0----|
A|2-----------------------------2--------------------|
E|3-----------------------------3--------------------|
  As I write this letter, oh,__ Send my love to you,  

                              G                    
e|-5---5----5-2---0------------3--------------------2---------------|
B|---------------------3-------3--------------------3------3--0-----|
G|------------------------2----0--------------------2------------2--|
D|-----------------------------0--------------------0---------------|
A|-----------------------------2------------------------------------|
E|-----------------------------3------------------------------------|
   you know I want you to re - mem - ber that I'll always, yeah___ 

D     A7        D
Be in love with you  
                      Em7                           D         A7                
e|--------------------0-----------------------------2---------0-----------------
B|----------0-----3---0------3----2----0----0-------3-----0---2-----------------
G|-2---2--------------0-----------------------------2---------0---0-------------
D|--------------------0-----------------------------0---------2------4----2---2-
A|--------------------2---------------------------------------------------------
E|--------------------0---------------------------------------------------------
   Treasure these few words 'till we're to - geth - er,  Keep all my love for-ev

A  A7          Bb
P. S.,  I love you.

Bb   C7   D
You, you, you.

		   
AcordesyTabs.com © 2008 Acordes y Tablaturas para guitarra. Tabs and Chords for guitar. Aviso Legal - Contacto
El uso de este sitio está sujeto a la aceptación de los términos y condiciones (40 usuarios online)