tablaturas, partituras y acordes para guitarra
Busca por banda/artista:
 
y/o título de la canción:
A B C D E F G H I J K L M N O P Q R S T U V W X Y Z 0 1 2 3 4 5 6 7 8 9 / Top 100 tabs
Categorías
Usuarios
usuario:
Darse de alta
password:
Artistas más visitados
Publicidad
TOP acordes y tablaturas de Beatles


Slow Down
de Beatles
Puntúa este acorde/tab:      
(0.5/5)
Reportar este acorde/tab
  Añadir a tus favoritos
  Imprimir
Title:           Slow Down 
Artist:          The Beatles  
~~~~~~~~~~~~~~~~~~~~~~~~~~~~~~~~~~~~~~~~~~~~~~~ 
e-------------------------------------------------------------------------------
b-----8--10-10p8-10p8---------------------------------13--15--15p13--15---------
g-7/9-------------------------------------------12/14---------------------------
d-------------------------------------------------------------------------------
a-------------------------------------------------------------------------------
E-------------------------------------------------------------------------------



e-------------------------------------------------------------------------------
b-12/---13----------------13--15--15p13--15--7/---8--------------8--10----------
g-12/---14---------12/14---------------------8/---9---------7/9-----------------
d-------------------------------------------------------------------------------
a-------------------------------------------------------------------------------
E-------------------------------------------------------------------------------


 
e-------------------------------------------------------------------------------
b-10p8--10--7/---8---------------8--10--10p8--10p8-----~rest~-------------------
g-----------8/---9----------7/9-------------------------------------------------
d-------------------------------------------------------------------------------
a-------------------------------------------------------------------------------
E-------------------------------------------------------------------------------



e-------------------------------------------------------------------------------
b--------15--17--17p15--17---12/---13--~rest~-----7/---8------------------------
g-14/16----------------------13/---14-------------8/---9------------------------
d-------------------------------------------------------------------------------
a-------------------------------------------------------------------------------
E-------------------------------------------------------------------------------

solo:

e-------------------------------------------------------------------------------
b-------------------------------------------------------------------------------
g---------------------------------------------------------------------3---------
d----------1-------------1-3---3/5--5--53--4--------------1--3---3/5------------
a------1h3---------3--3------------------------3--1h3--3------------------------
E-3-3---------------------------------------------------------------------------



e-------------------------------------------------------------------------------
b-------------------------------------------------------------------------------
g--------------------rest-------------3---------------3-------3-----------------
d-53--1--------------------1-3--3/5-----53--1---3/5----3/5----3/5---------------
a---------3--1h3--3-------------------------------------------------------------
e-------------------------------------------------------------------------------



e-------------------------------------------------------------------------------
b-------------------------------------------------------------------------------
g------3--------------------rest-----------------rest------------8---10---------
d-3/5-----53--1--3-----3----------3---3hud--1--------------8h10-----------------
a-------------------------------------------------------10----------------------
E--------------------1----------------------------------------------------------



e----------------------------------8--------------------------------------------
b-------------------------------8------8-----------------8---8---8---8----------
g-10---10--8-----------8--10---10-----10--10hud8--rest--10--10--10--10----------
d-------------10---10-----------------------------------------------------------
a-------------------------------------------------------------------------------
E-------------------------------------------------------------------------------



e-------------------------------------------------------------------------------
b--8---8------------------------8-------------------8-------8-------------------
g-10--10--10hud--8--rest--rest-----10/12--12--10/12---10/12---10-8/10-----------
d-------------------------------------------------------------------------------
a-------------------------------------------------------------------------------
E-------------------------------------------------------------------------------

		   
AcordesyTabs.com © 2008 Acordes y Tablaturas para guitarra. Tabs and Chords for guitar. Aviso Legal - Contacto
El uso de este sitio está sujeto a la aceptación de los términos y condiciones (27 usuarios online)