tablaturas, partituras y acordes para guitarra
Busca por banda/artista:
 
y/o título de la canción:
A B C D E F G H I J K L M N O P Q R S T U V W X Y Z 0 1 2 3 4 5 6 7 8 9 / Top 100 tabs
Categorías
Usuarios
usuario:
Darse de alta
password:
Artistas más visitados
Publicidad
TOP acordes y tablaturas de Beatles


This Boy
de Beatles
Puntúa este acorde/tab:      
(0.2/5)
Reportar este acorde/tab
  Añadir a tus favoritos
  Imprimir

-------------------------------------------------------------------------

    THE BEATLES - THIS BOY (Lennon/McCartney) First released as a single 
                  along with I WANT TO HOLD YOUR HAND 29th November 1963.

-------------------------------------------------------------------------

Tabbed by PJVillanueva




That boy took my love away,
He'll regret it someday,
But this boy wants you back again.

That boy isn't good for you,
Tho' he may want you too,
This boy wants you back again.

Oh, and this boy would be happy,
Just to love you, buy oh my-yi-yi,
That boy won't be happy,
Till he's seen you cry-hi-hi.

This boy wouldn't mind the pain,
Would always feel the same,
If this boy gets you back again.
This boy. This boy.




12/8


               D            Dsus2        D
e|------------ 2-----------|2----------- 2-----------|
B|-------------3-----------|3------------3-----------|
G|-------------2-----------|2------------2-----------|
D|-------------0-----------|2------------4-----------|
A|-------------------------|-------------------------|
E|-------------------------|-------------------------|
  D                         Bm
e|2---2-2-2-2- 2---2---2---|2---2-2-2-2- 2---2---2---|
B|3---3-3-3-3--3---3---3---|3---3-3-3-3--3---3---3---|
G|2---2-2-2-2--2---2---2---|4---4-4-4-4--4---4---4---|
D|0---0-0-0-0--0---0---0---|4---4-4-4-4--4---4---4---|
A|-------------------------|2---2-2-2-2--2---2---2---|
E|-------------------------|-------------------------|
  Em7                       A
e|----0-0-0-0- 0---0---0---|0---0-0-0--- 0---0---0---|
B|----3-3-3-0--3---3---3---|2---2-2-2----2---2---2---|
G|----0-0-0-0--0---0---0---|2---2-2-2----2---2---2---|
D|----2-2-2-2--2---2---2---|2---2-2-2----2---2---2---|
A|----2-2-2-2--2---2---2---|0---0-0-0----0---0---0---|
E|----0-0-0-0--0---0---0---|-------------------------|


  D                         Bm
e|2-------2--- 2-2-2-2-2---|2---2-2-2--- 2---2---2---|
B|3-------3----3-3-3-3-3---|3---3-3-3----3---3---3---|
G|2-------2----2-2-2-2-2---|4---4-4-4----4---4---4---|
D|0-------0----0-0-0-0-0---|4---4-4-4----4---4---4---|
A|-------------------------|2---2-2-2----2---2---2---|
E|-------------------------|-------------------------|
  That boy
  Em7                       A
e|0---0-0-0--- 0-------0---|0---0-0-0--- 0---0-0-0---|
B|3---3-3-3----3-------3---|2---2-2-2----2---2-2-2---|
G|0---0-0-0----0-------0---|2---2-2-2----2---2-2-2---|
D|2---2-2-2----2-------2---|2---2-2-2----2---2-2-2---|
A|2---2-2-2----2-------2---|0---0-0-0----0---0-0-0---|
E|0---0-0-0----0-------0---|-------------------------|
               took    my   love                  a..
  D                         Bm
e|2---2-2-2-2- 2---2---2---|2---2-2-2-2- 2---2---2---|
B|3---3-3-3-3--3---3---3---|3---3-3-3-3--3---3---3---|
G|2---2-2-2-2--2---2---2---|4---4-4-4-4--4---4---4---|
D|0---0-0-0-0--0---0---0---|4---4-4-4-4--4---4---4---|
A|-------------------------|2---2-2-2-2--2---2---2---|
E|-------------------------|-------------------------|
  way
  Em7                       A
e|0---2-2-2--- 0-------0---|0---0-0-0--- 0---0---0---|
B|3---3-3-3----3-------3---|2---2-2-2----2---2---2---|
G|0---0-0-0----0-------0---|2---2-2-2----2---2---2---|
D|2---2-2-2----2-------2---|2---2-2-2----2---2---2---|
A|2---2-2-2----2-------2---|0---0-0-0----0---0---0---|
E|0---0-0-0----0-------0---|-------------------------|
               He'll     regret it               some
  D                         Bm
e|2---2-2-2--- 2-2-2-2-2---|2---2-2-2--- 2---2---2---|
B|3---3-3-3----3-3-3-3-3---|3---3-3-3----3---3---3---|
G|2---2-2-2----2-2-2-2-2---|4---4-4-4----4---4---4---|
D|0---0-0-0----0-0-0-0-0---|4---4-4-4----4---4---4---|
A|-------------------------|2---2-2-2----2---2---2---|
E|-------------------------|-------------------------|
  day                                             but
  Em                        A
e|0----------- ------------|0----------- ------------|
B|0------------------------|2------------------------|
G|0------------------------|2------------------------|
D|2------------------------|2------------------------|
A-2------------------------|0------------------------|
E|0------------------------|-------------------------|
  this boy                  wants you        back  a..

e|2---2-2-2--- 2-----2-2---|2---2-2-2--- 2---2---2---|
B|3---3-3-3----3-----3-3---|3---3-3-3----3---3---3---|
G|2---2-2-2----2-----2-2---|4---4-4-4----4---4---4---|
D|0---0-0-0----0-----0-0---|4---4-4-4----4---4---4---|
A|-------------------------|2---2-2-2----2---2---2---|
E|-------------------------|-------------------------|
  gain

e|0---2-2-2-2- 0---0---0---|0---0-0-0--- 0---0---0---|
B|3---3-3-3-3--3---3---3---|2---2-2-2----2---2---2---|
G|0---0-0-0-0--0---0---0---|2---2-2-2----2---2---2---|
D|2---2-2-2-2--2---2---2---|2---2-2-2----2---2---2---|
A|2---2-2-2-2--2---2---2---|0---0-0-0----0---0---0---|
E|0---0-0-0-0--0---0---0---|-------------------------|


e|2-------2--- 2-2-2-2-2---|2---2-2-2--- 2---2-2-2---|
B|3-------3----3-3-3-3-3---|3---3-3-3----3---3-3-3---|
G|2-------2----2-2-2-2-2---|4---4-4-4----4---4-4-4---|
D|0-------0----0-0-0-0-0---|4---4-4-4----4---4-4-4---|
A|-------------------------|2---2-2-2----2---2-2-2---|
E|-------------------------|-------------------------|
  That boy

e|0---0-0-0--- 0---0---0---|0---0-0-0--- 0-------0---|
B|3---3-3-3----3---3---3---|2---2-2-2----2-------2---|
G|0---0-0-0----0---0---0---|2---2-2-2----2-------2---|
D|2---2-2-2----2---2---2---|2---2-2-2----2-------2---|
A|2---2-2-2----2---2---2---|0---0-0-0----0-------0---|
E|0---0-0-0----0---0---0---|-------------------------|
               isn't        good                  for             

e|2---2-2-2--- 2---2---2---|2---2-2-2--- 2---2---2---|
B|3---3-3-3----3---3---3---|3---3-3-3----3---3---3---|
G|2---2-2-2----2---2---2---|4---4-4-4----4---4---4---|
D|0---0-0-0----0---0---0---|4---4-4-4----4---4---4---|
A|-------------------------|2---2-2-2----2---2---2---|
E|-------------------------|-------------------------|
  you

e|0---0-0-0--- 0-------0---|0---0-0-0--- 0---0---0---|
B|3---3-3-3----3-------3---|2---2-2-2----2---2---2---|
G|0---0-0-0----0-------0---|2---2-2-2----2---2---2---|
D|2---2-2-2----2-------2---|2---2-2-2----2---2---2---|
A|2---2-2-2----2-------2---|0---0-0-0----0---0---0---|
E|0---0-0-0----0-------0---|-------------------------|
        tho'   he      may  want                  you           

e|2---2-2-2--- 2-2-2---2---|2---2-2-2--- 2---2---2---|
B|3---3-3-3----3-3-3---3---|3---3-3-3----3---3---3---|
G|2---2-2-2----2-2-2---2---|4---4-4-4----4---4---4---|
D|0---0-0-0----0-0-0---0---|4---4-4-4----4---4---4---|
A|-------------------------|2---2-2-2----2---2---2---|
E|-------------------------|-------------------------|
  too       

e|0----------- ------------|0----------- ------------|
B|0------------------------|2------------------------|
G|0------------------------|2------------------------|
D|2------------------------|2------------------------|
A-2------------------------|0------------------------|
E|0------------------------|-------------------------|
  this boy                  wants you            back      

e|2---2-2-2--- 2---2-2-2---|2---2-2-2--- 2---2---2---|
B|3---3-3-3----3---3-3-3---|3---3-3-3----3---3---3---|
G|2---2-2-2----2---2-2-2---|2---2-2-2----2---2---2---|
D|0---0-0-0----0---0-0-0---|0---0-0-0----0---0---0---|
A|-------------------------|-------------------------|
E|-------------------------|-------------------------|
  gain
  D9
e|5---5---5--- 5---5---5---|5---5---5--- 5-----------|
B|5---5---5----5---5---5---|5---5---5----5-----------|
G|5---5---5----5---5---5---|5---5---5----5-----------|
D|4---4---4----4---4---4---|4---4---4----4-----------|
A|5---5---5----5---5---5---|5---5---5----5-----------|
E|-------------------------|-------------------------|
                            Oh           and
  G    
e|3---3---3--- 3---3---3---|3---3---3--- 3-----------|
B|3---3---3----3---3---3---|3---3---3----3-----------|
G|4---4---4----4---4---4---|4---4---4----4-----------|
D|5---5---5----5---5---5---|5---5---5----5-----------|
A|5---5---5----5---5---5---|5---5---5----5-----------|
E|3---3---3----3---3---3---|3---3---3----3-----------|
  this boy                               would  be

  F#
e|2---2---2--- 2---2---2---|2---2---2--- 2-----------|
B|2---2---2----2---2---2---|2---2---2----2-----------|
G|3---3---3----3---3---3---|3---3---3----3-----------|
D|4---4---4----4---4---4---|4---4---4----4-----------|
A|4---4---4----4---4---4---|4---4---4----4-----------|
E|2---2---2----2---2---2---|2---2---2----2-----------|
  happy                                  just  to
  Bm
e|2---2---2--- 2---2---2---|2---2---2--- 2-----------|
B|3---3---3----3---3---3---|3---3---3----3-----------|
G|4---4---4----4---4---4---|4---4---4----4-----------|
D|4---4---4----4---4---4---|4---4---4----4-----------|
A|2---2---2----2---2---2---|2---2---2----2-----------|
E|-------------------------|-------------------------|
  love you                               but  oh  
  D9
e|5---5---5--- 5---5---5---|5---5---5--- 5---5---5---|
B|5---5---5----5---5---5---|5---5---5----5---5---5---|
G|5---5---5----5---5---5---|5---5---5----5---5---5---|
D|4---4---4----4---4---4---|4---4---4----4---4---4---|
A|5---5---5----5---5---5---|5---5---5----5---5---5---|
E|-------------------------|-------------------------|
  my
  G
e|3---3---3--- 3---3---3---|3---3---3--- 3-----------|
B|3---3---3----3---3---3---|3---3---3----3-----------|
G|4---4---4----4---4---4---|4---4---4----4-----------|
D|5---5---5----5---5---5---|5---5---5----5-----------|
A|5---5---5----5---5---5---|5---5---5----5-----------|
E|3---3---3----3---3---3---|3---3---3----3-----------|
  that boy                               won't  be
  E7                        E9
e|------------ ------------|------------ ------------|
B|5---5---5----5---5---5---|7-------7----7---7---x---|
G|7---7---7----7---7---7---|7-------7----7---7---x---|
D|6---6---6----6---6---6---|6-------6----6---6---x---|
A|7---7---7----7---7---7---|7-------7----7---7---x---|
E|-------------------------|-------------------------|
  happy       
  A
e|0---0---0--- 0---0---0---|0---0---0--- 0---0---0---|
B|2---2---2----2---2---2---|2---2---2----2---2---2---|
G|2---2---2----2---2---2---|2---2---2----2---2---2---|
D|2---2---2----2---2---2---|2---2---2----2---2---2---|
A|0---0---0----0---0---0---|0---0---0----0---0---0---|
E|-------------------------|-------------------------|
  till                 he's seen         you   

e|0----------- ------------|------------ ------------|
B|2------------------------|-------------------------|
G|2------------------------|-------------------------|
D|2------------------------|-------------------------|
A|0------------------------|-------------------------|
E|-------------------------|-------------------------|
  cry


e|2-------2--- 2-2-2-2-2---|2---2-2-2--- 2---2---2---|
B|3-------3----3-3-3-3-3---|3---3-3-3----3---3---3---|
G|2-------2----2-2-2-2-2---|4---4-4-4----4---4---4---|
D|0-------0----0-0-0-0-0---|4---4-4-4----4---4---4---|
A|-------------------------|2---2-2-2----2---2---2---|
E|-------------------------|-------------------------|
  This boy

e|0---0-0-0--- 0-------0---|0---0-0-0--- 0---0-0-0---|
B|3---3-3-3----3-------3---|2---2-2-2----2---2-2-2---|
G|0---0-0-0----0-------0---|2---2-2-2----2---2-2-2---|
D|2---2-2-2----2-------2---|2---2-2-2----2---2-2-2---|
A|2---2-2-2----2-------2---|0---0-0-0----0---0-0-0---|
E|0---0-0-0----0-------0---|-------------------------|
               wouldn't     mind                  the           

e|2---2-2-2--- 2---2---2---|2---2-2-2--- 2---2-2-2---|
B|3---3-3-3----3---3---3---|3---3-3-3----3---3-3-3---|
G|2---2-2-2----2---2---2---|4---4-4-4----4---4-4-4---|
D|0---0-0-0----0---0---0---|4---4-4-4----4---4-4-4---|
A|-------------------------|2---2-2-2----2---2-2-2---|
E|-------------------------|-------------------------|
  pain

e|0---0-0-0--- 0-------0---|0---0---0--- 0-----------|
B|3---3-3-3----3-------3---|2---2---2----2-----------|
G|0---0-0-0----0-------0---|2---2---2----2-----------|
D|2---2-2-2----2-------2---|2---2---2----2-----------|
A|2---2-2-2----2-------2---|0---0---0----0-----------|
E|0---0-0-0----0-------0---|-------------------------|
         would always       feel                  the        

e|2---2---2--- 2---2---2---|2-------2--- 2-------x---|
B|3---3---3----3---3---3---|3-------3----3-------x---|
G|2---2---2----2---2---2---|4-------4----4-------x---|
D|0---0---0----0---0---0---|4-------4----4-------x---|
A|-------------------------|2-------2----2-------x---|
E|-------------------------|-------------------------|
  same                                             If

e|0----------- ------------|0----------- ------------|
B|0------------------------|2------------------------|
G|0------------------------|2------------------------|
D|2------------------------|2------------------------|
A-2------------------------|0------------------------|
E|0------------------------|-------------------------|
  this boy                  gets  you        back  a..

e|2-------2--- 2-----2-2---|2-------2--- 2---2-------|
B|3-------3----3-----3-3---|3-------3----3---3-------|
G|2-------2----2-----2-2---|4-------4----4---4-------|
D|0-------0----0-----0-0---|4-------4----4---4-------|
A|-------------------------|2-------2----2---2-------|
E|-------------------------|-------------------------|
  gain

e|0---0-0-0--- 0---0---0---|0---0-0-0--- 0---0---0---|
B|3---3-3-3----3---3---3---|2---2-2-2----2---2---2---|
G|0---0-0-0----0---0---0---|2---2-2-2----2---2---2---|
D|2---2-2-2----2---2---2---|2---2-2-2----2---2---2---|
A|2---2-2-2----2---2---2---|0---0-0-0----0---0---0---|
E|0---0-0-0----0---0---0---|-------------------------|



e|2---2---2--- 2---2---2---|2---2-2-2--- 2---2---2---|
B|3---3---3----3---3---3---|3---3-3-3----3---3---3---|
G|2---2---2----2---2---2---|4---4-4-4----4---4---4---|
D|0---0---0----0---0---0---|4---4-4-4----4---4---4---|
A|-------------------------|2---2-2-2----2---2---2---|
E|-------------------------|-------------------------|
  This boy


e|0---0-0-0--- 0---0---0---|0---0-0-0-0- 0---0---0---|
B|3---3-3-3----3---3---3---|2---2-2-2-2--2---2---2---|
G|0---0-0-0----0---0---0---|2---2-2-2-2--2---2---2---|
D|2---2-2-2----2---2---2---|2---2-2-2-2--2---2---2---|
A|2---2-2-2----2---2---2---|0---0-0-0-0--0---0---0---|
E|0---0-0-0----0---0---0---|-------------------------|

e|10---------- 9-----------|7----------- 9-----------|
B|-------------------------|-------------------------|
G|-7-----------6-----------|4------------6-----------|
D|-------------------------|-------------------------|
A|-------------------------|-------------------------|
E|-------------------------|-------------------------|

 

e|2---2-2-2--- 2---2---2---|2---2---2--- 2---2---2---|
B|3---3-3-3----3---3---3---|3---3---3----3---3---3---|
G|2---2-2-2----2---2---2---|4---4---4----4---4---4---|
D|0---0-0-0----0---0---0---|4---4---4----4---4---4---|
A|-------------------------|2---2---2----2---2---2---|
E|-------------------------|-------------------------|
  This boy
e|------------ ------------|------------ ------------|
B|7---/---10---------------|-------------------------|
G|-------------------------|-------------------------|
D|4---/----7---------------|-------------------------|
A|-------------------------|-------------------------|
E|-------------------------|-------------------------|



e|0---2-2-2-2- 0---0---0---|0---0-0-0-0- 0---0---0---|
B|3---3-3-3-3--3---3---3---|2---2-2-2-2--2---2---2---|
G|0---0-0-0-0--0---0---0---|2---2-2-2-2--2---2---2---|
D|2---2-2-2-2--2---2---2---|2---2-2-2-2--2---2---2---|
A|2---2-2-2-2--2---2---2---|0---0-0-0-0--0---0---0---|
E|0---0-0-0-0--0---0---0---|-------------------------|

e|10---------- 9-----------|7----------- 9-----------|
B|-------------------------|-------------------------|
G|-7-----------6-----------|4------------6-----------|
D|-------------------------|-------------------------|
A|-------------------------|-------------------------|
E|-------------------------|-------------------------|



e|2---2-2-2--- 2---2-2-2---|2---2-2-2--- 2---2-2-2---|
B|3---3-3-3----3---3-3-3---|3---3-3-3----3---3-3-3---|
G|2---2-2-2----2---2-2-2---|4---4-4-4----4---4-4-4---|
D|0---0-0-0----0---0-0-0---|4---4-4-4----4---4-4-4---|
A|-------------------------|2---2-2-2----2---2-2-2---|
E|-------------------------|-------------------------|
  This boy
e|------------ ------------|------------ ------------|
B|7---/---10---------------|-------------------------|
G|-------------------------|-------------------------|
D|4---/----7---------------|-------------------------|
A|-------------------------|-------------------------|
E|-------------------------|-------------------------|



e|0---2-2-2-2- 0---0---0---|0---0-0-0--- 0---0---0---|
B|3---3-3-3-3--3---3---3---|2---2-2-2----2---2---2---|
G|0---0-0-0-0--0---0---0---|2---2-2-2----2---2---2---|
D|2---2-2-2-2--2---2---2---|2---2-2-2----2---2---2---|
A|2---2-2-2-2--2---2---2---|0---0-0-0----0---0---0---|
E|0---0-0-0-0--0---0---0---|-------------------------|

e|10---------- 9-----------|7----------- 9-----------|
B|-------------------------|-------------------------|
G|-7-----------6-----------|4------------6-----------|
D|-------------------------|-------------------------|
A|-------------------------|-------------------------|
E|-------------------------|-------------------------|








        B  Bend
        R  Release
        /  slide up
          slide down
        H  hammer-on
        P  pull-off
        ~  vibrato
        +  harmonic
        x  Mute note
        . - play note like a dot in standard notation
        ^ - ties two notes together




		   
AcordesyTabs.com © 2008 Acordes y Tablaturas para guitarra. Tabs and Chords for guitar. Aviso Legal - Contacto
El uso de este sitio está sujeto a la aceptación de los términos y condiciones (75 usuarios online)