tablaturas, partituras y acordes para guitarra
Busca por banda/artista:
 
y/o título de la canción:
A B C D E F G H I J K L M N O P Q R S T U V W X Y Z 0 1 2 3 4 5 6 7 8 9 / Top 100 tabs
Categorías
Usuarios
usuario:
Darse de alta
password:
Artistas más visitados
Publicidad
TOP acordes y tablaturas de Beatles


Estás en: Inicio > Letra B > Acordes y tablaturas de Beatles > While My Guitar Gently Weeps
While My Guitar Gently Weeps
de Beatles
Puntúa este acorde/tab:      
(0.4/5)
Reportar este acorde/tab
  Añadir a tus favoritos
  Imprimir
while my guitar gently weeps

chords

Am     Am/G   D9/F#  Fmaj7  G      D      E      C      A
0      0      0      0      3      2      0      0      0
1      1      3      1      0      3      0      1      2
2      2      2      2      0      2      1      0      2
2      2      4      3      0      0      2      2      2
0      #      #      #      2      #      2      3      0
#      3      #      #      3      #      0      #      #

C#m    F#m    Bm     
4      2      2
5      2      3
6      2      4
6      4      4
4      4      2
#      2      #

intro

Am   Am/G   D9/F#   Fmaj7   Am   G    D    E
                                           ---0-----4-
                                           -----------
                                           -----2-4---
                                           -----------
                                           -----------
                                           -0---------

verses

          Am         Am/G        D9/F#            Fmaj7
(1)i look at you all see the love there thats sleeping
(2)i look at the world and i notice its turning
(3)i look at you all see the love there thats sleeping

Am             G             D               E
while my guitar gently weeps ------------------------------------
while my guitar gently weeps ------------------------------------
while my guitar gently weeps -14b17b17b17r14-13-13b15r13---------
                             ----------------------------14p12-14
                             ------------------------------------
                             ------------------------------------
     Am         Am/G        D9/F#            Fmaj7
i look at the floor and i see it needs sweeping
with every mistake we must surely be learning
i look at you all

Am             G            2xsolo   C          E
still my guitar gently weeps         ---------------5---------
still my guitar gently weeps         ---------------5-8-------
still my guitar gently weeps         -7b9r7-----7b9-----7b9r7-
                                     -------------------------
                                     -------------------------
                                     -------------------------

chorus

    A          C#m      F#m         C#m  
(1)i dont know why      nobody told you 
(2)i dont know how       you were diverted 

Bm                       E
how to unfold your love  -----9---7---4---2---0---2-
you were perverted too   ---------------------------
                         ---9---7---4---2---1---2---
                         -9-------------------------
                         -7-------------------------
                         ---------------------------

    A        C#m      F#m         C#m  
i dont know how        someone controlled you
i dont know how        you were inverted

Bm                       E
they bought and sold you ----14----------12-------------------
noone altered you        -12b14-14r12-------12----------------
                         -------------13----------------------
                         ----------------------14b16r14-12----
                         ----------------------------------16-
                         -------------------------------------

solo
C         E                     Am    Am/G           D9/F# 
----------------------------------------------------------------
--------------------13b14-15b17-13------------------------------
-17r14------12h14b16----------------14--12h14b17-14b17r14-------
----------------------------------------------------------------
----------------------------------------------------------------
----------------------------------------------------------------

Fmaj7           Am        G                    D
-------------------------------------------------15-------------
-----------------------------15b17r15p13-15b17------15b17r15-15-
-12h14b17-14b17r14--12h14b17------------------------------------
----------------------------------------------------------------
----------------------------------------------------------------
----------------------------------------------------------------

E                     Am             Am/G                 D9/F#
----15b17-15b17-15b17-15b17-17r15-17r15p12-------15-------------
-13----------------------------------------15b17----15b17r15----
----------------------------------------------------------------
----------------------------------------------------------------
----------------------------------------------------------------
----------------------------------------------------------------

                      Fmaj7           Am                     G 
----------15----------------------------------------------------
-13h15b17----15b17r15-13----------------------------------------
-------------------------18r14-12h14b17-14b17r14-------12-------
-------------------------------------------------12h14----14s12-
----------------------------------------------------------------
----------------------------------------------------------------

                 C                       E
--------------------------------------------------17-------------
-----------------------------------------------17-17-20b22-22r20-
-----------------------12h14-14s17-17s19-19b21-------------------
-p10-12-10h12-10-12h14-------------------------------------------
-----------------------------------------------------------------
-----------------------------------------------------------------

coda
rpt
-------
-------
-7b8tr-
-------
-------
-------
AcordesyTabs.com © 2008 Acordes y Tablaturas para guitarra. Tabs and Chords for guitar. Aviso Legal - Contacto
El uso de este sitio está sujeto a la aceptación de los términos y condiciones (38 usuarios online)