tablaturas, partituras y acordes para guitarra
Busca por banda/artista:
 
y/o título de la canción:
A B C D E F G H I J K L M N O P Q R S T U V W X Y Z 0 1 2 3 4 5 6 7 8 9 / Top 100 tabs
Categorías
Usuarios
usuario:
Darse de alta
password:
Artistas más visitados
Publicidad
TOP acordes y tablaturas de Beatles


Estás en: Inicio > Letra B > Acordes y tablaturas de Beatles > Yesterday 1
Yesterday 1
de Beatles
Puntúa este acorde/tab:      
(0.5/5)
Reportar este acorde/tab
  Añadir a tus favoritos
  Imprimir

--------------------------------------------------------------------------

THE BEATLES - YESTERDAY (Lennon/McCartney) from HELP album.
              Released on 6th August 1965.

-------------------------------------------------------------------------

Tabbed by: PJVillanueva







e|----3-- 3---3-- ----3-- 3-3-3--|----3-- 3---3-- ----3-- 3---3--|
B|----3---3---3-------3---3-3-3--|----3---3---3-------3---3---3--|
G|----0---0---0-------0---0-0-0--|----0---0---0-------0---0---0--|
D|-------------------------------|-------------------------------|
A|-------------------------------|-------------------------------|
E|3---------------3--------------|3---------------3--------------|



e|----3-- 3---3-- ----3-- 3------|----2-- 2---2-- ----2-- 2---2--|
B|----3---3---3-------3---3------|----2---2---2-------0---0---0--|
G|----0---0---0-------0---0------|----2---2---2-------2---2---2--|
D|-------------------------------|-------------------------------|
A|-------------------------------|----------------2--------------|
E|3---------------3-----------0--|2------------------------------|
  Yesterday                               all my troubles seem so


e|----0-- 0---0-- ----0-- ----0--|----0-- 0---0-- ----2-- 2---2--|
B|----0---0---0-------0-------0--|----0---0---0-------1---1---1--|
G|----0---0---0-------0-------0--|----0---0---0-------2---2---2--|
D|2---------------2-------0------|----------------0--------------|
A|-------------------------------|3------------------------------|
E|-------------------------------|-------------------------------|
  far     away                           Now it looks as though they're


e|----3-- 3---3-- ----3-- ----3--|------- ------- ----0-- 0------|
B|----3---3---3-------3-------3--|----3---3---3-------2---2------|
G|----0---0---0-------0-------0--|----0---0---0-------2---2------|
D|-------------------------------|----2---2---2------------------|
A|-------------------------------|----------------0--------------|
E|3---------------3-------2------|0------------------------------|
  here to stay               Oh   I believe                   in


e|0------ 3---3-- ----3-- 3---3--|----3-- 3---3-- ----3-- 3------|
B|1-------3---3-------3---3---3--|----3---3---3-------3---3------|
G|0-------0---0-------0---0---0--|----0---0---0-------0---0------|
D|-------------------------------|-------------------------------|
A|3------------------------------|-------------------------------|
E|--------3-------3--------------|3---------------3-----------0--|
  yesterday                       Suddenly


e|----2-- 2---2-- ----2-- 2---2--|----0-- 0---0-- ----0-- ----0--|
B|----2---2---2-------0---0---0--|----0---0---0-------0-------0--|
G|----2---2---2-------2---2---2--|----0---0---0-------0-------0--|
D|-------------------------------|2---------------2-------0------|
A|----------------2--------------|-------------------------------|
E|2------------------------------|-------------------------------|
          I'm not half the man I  used    to be


e|----0-- 0---0-- ----2-- 2---2--|----3-- 3---3-- ----3-- ----3--|
B|----0---0---0-------1---1---1--|----3---3---3-------3-------3--|
G|----0---0---0-------2---2---2--|----0---0---0-------0-------0--|
D|----------------2--------------|-------------------------------|
A|3------------------------------|-------------------------------|
E|-------------------------------|3---------------3-------2------|
         there's a shadow hanging over        me             oh


e|------- ------- ----0-- 0------|0------ 3---3-- ----3-- -------|
B|----3---3---3-------2---2------|1-------3---3-------3-------0--|
G|----0---0---0-------2---2------|0-------0---0-------0-------0--|
D|----2---2---2------------------|-------------------------------|
A|----------------0--------------|3------------------------------|
E|0------------------------------|--------3---------------3------|
  yesterday                  came suddenly 


e|----2-- 2---2-- ----2-- 2---2--|0------ 2------ 3------ 2---0--|
B|----2---2---2-------0---0---0--|-------------------------------|
G|----2---2---2-------2---2---2--|-------------------------------|
D|-------------------------------|2-------0----------------------|
A|----------------2--------------|----------------3-------2------|
E|2------------------------------|-------------------------------|
  Why             she             had     to      go      I don't


e|----0-- 0---0-- ----0-- 0---0--|----3-- 3---3-- ----3-- 3------|
B|----1---1---1-------1---1---1--|----3---3---3-------3---3------|
G|----2---2---2-------0---0---0--|----0---0---0-------0---0------|
D|----------------0--------------|-------------------------------|
A|0------------------------------|-------------------------------|
E|-------------------------------|3---------------3-----------0--|
  know        she wouldn't   say 


e|----2-- 2---2-- ----2-- 2---2--|0------ 2------ 3------ 2---0--|
B|----2---2---2-------0---0---0--|-------------------------------|
G|----2---2---2-------2---2---2--|-------------------------------|
D|-------------------------------|2-------0----------------------|
A|----------------2--------------|----------------3-------2------|
E|2------------------------------|-------------------------------|
  I               said            something       wrong   now I   


e|----0-- 0---0-- ----0-- 0---0--|------- ------- ------- -------|
B|----1---1---1-------1---1---1--|-------------------------------|
G|----2---2---2-------2---2---2--|-------------------------------|
D|----------------0--------------|-------------------------------|
A|0------------------------------|-------------------------------|
E|-------------------------------|3------------------------------|
  long        for yes.....ter.....day


e|3------ 3---3-- ----3-- 3------|----2-- 2------ ----2-- 2---2--|
B|3-------3---3-------3---3------|----2---2-----------0---0---0--|
G|0-------0---0-------0---0------|----2---2-----------2---2---2--|
D|-------------------------------|-------------------------------|
A|-------------------------------|----------------2--------------|
E|3---------------3-----------0--|2------------------------------|
  Yesterday                               love was such an easy 


e|----0-- 0---0-- ----0-- ----0--|----0-- 0---0-- ----2-- 2---2--|
B|----0---0---0-------0-------0--|----1---1---1-------1---1---1--|
G|----0---0---0-------0-------0--|----0---0---0-------2---2---2--|
D|2---------------2-------0------|----------------0--------------|
A|-------------------------------|3------------------------------|
E|-------------------------------|-------------------------------|
  game to play                            now I   need a place to


e|----3-- 3---3-- ----3-- ----3--|------- ------- ----0-- 0---0--|
B|----3---3---3-------3-------3--|----3---3---3-------2---2---2--|
G|----0---0---0-------0-------0--|----0---0---0-------2---2---2--|
D|-------------------------------|----2---2---2------------------|
A|-------------------------------|----------------0--------------|
E|3---------------3-------2------|0------------------------------|
  hide     away           oh      I       believe             in


e|0------ 3---3-- ----3-- 3------|----2-- 2---2-- ----2-- 2---2--|
B|1-------3---3-------3---3------|----2---2---2-------0---0---0--|
G|0-------0---0-------0---0------|----2---2---2-------2---2---2--|
D|-------------------------------|-------------------------------|
A|3------------------------------|----------------2--------------|
E|--------3-------------------0--|2------------------------------|
  yesterday                       Why              she


e|0------ 2------ 3------ 2---0--|----0-- 0---0-- ----0-- 0---0--|
B|-------------------------------|----1---1---1-------1---1---1--|
G|-------------------------------|----2---2---2-------2---2---2--|
D|2-------0----------------------|----------------0--------------|
A|----------------3-------2------|0------------------------------|
E|-------------------------------|-------------------------------|
  had     to      go      I don't know        she  wouldn't     say


e|----3-- 3---3-- ----3-- 3------|----2-- 2---2-- ----2-- 2---2--|
B|----3---3---3-------3---3------|----2---2---2-------0---0---0--|
G|----0---0---0------------------|----2---2---2-------2---2---2--|
D|-------------------------------|-------------------------------|
A|-------------------------------|----------------2--------------|
E|3---------------3-----------0--|2------------------------------|
                                  I               said


e|0------ 2------ 3------ 2---0--|----0-- 0---0-- ----2-- 2---2--|
B|-------------------------------|----1---1---1-------1---1---1--|
G|-------------------------------|----2---2---2-------2---2---2--|
D|2-------0----------------------|----------------0--------------|
A|----------------3-------2------|0------------------------------|
E|-------------------------------|-------------------------------|
  something       wrong   now I   long       for  yes.....ter....


e|3------ ------- ------- -------|3------ 3---3-- ----3-- 3------|
B|3------------------------------|3-------3---3-------3---3------|
G|-------------------------------|0-------0---0-------0---0------|
D|-------------------------------|-------------------------------|
A|-------------------------------|-------------------------------|
E|3------------------------------|3---------------3-----------0--|
  day                             Yesterday


e|----2-- 2---2-- ----2-- 2---2--|----0-- 0---0-- ----0-- ----0--|
B|----2---2---2-------0---0---0--|----0---0---0-------0-------0--|
G|----2---2---2-------2---2---2--|----0---0---0-------0-------0--|
D|-------------------------------|2---------------2-------0------|
A|----------------2--------------|-------------------------------|
E|2------------------------------|-------------------------------|
          love was such an easy   game    to play


e|----0-- 0---0-- ----2-- 2---2--|----3-- 3---3-- ----3-- ----3--|
B|----1---1---1-------1---1---1--|----3---3---3-------3-------3--|
G|----0---0---0-------2---2---2--|----0---0---0-------0-------0--|
D|----------------0--------------|-------------------------------|
A|3------------------------------|-------------------------------|
E|-------------------------------|3---------------3-------2------|
          now I need a place to   hide    away                oh


e|------- ------- ----0-- 0---0--|0------ 3---3-- ----3-- 3---3--|
B|----3---3---3-------2---2---2--|1-------3---3-------3---3---3--|
G|----0---0---0-------2---2---2--|0-------0---0-------0---0---0--|
D|----2---2---2------------------|-------------------------------|
A|----------------0--------------|3------------------------------|
E|0------------------------------|--------3----------------------|
  I       believe             in  yesterday

                                             (.
e|3---3-- 3---3-- 3---3-- 3---3--|0------ 3---3-- ------- -------|
B|3---3---3---3---2---2---2---2--|1-------3---3------------------|
G|0---0---0---0---0---0---0---0--|0-------0---0------------------|
D|-------------------------------|-------------------------------|
A|----------------0--------------|3------------------------------|
E|3------------------------------|--------3---3------------------|
  mmmmmmmmmmmmmmmmmmmmmmmmmmmmmmmmmmmmmmmmmmmmmmmmmmmmmmmm







        B  Bend
        R  Release
        /  slide up
          slide down
        H  hammer-on
        P  pull-off
        ~  vibrato
        +  harmonic
        x  Mute note
        . - play note like a dot in standard notation
        ^ - ties two notes together





		   
AcordesyTabs.com © 2008 Acordes y Tablaturas para guitarra. Tabs and Chords for guitar. Aviso Legal - Contacto
El uso de este sitio está sujeto a la aceptación de los términos y condiciones (23 usuarios online)