tablaturas, partituras y acordes para guitarra
Busca por banda/artista:
 
y/o título de la canción:
A B C D E F G H I J K L M N O P Q R S T U V W X Y Z 0 1 2 3 4 5 6 7 8 9 / Top 100 tabs
Categorías
Usuarios
usuario:
Darse de alta
password:
Artistas más visitados
Publicidad
TOP acordes y tablaturas de Black Sabbath


Estás en: Inicio > Letra B > Acordes y tablaturas de Black Sabbath > Electric Funeral
Electric Funeral
de Black Sabbath
Puntúa este acorde/tab:      
(0.2/5)
Reportar este acorde/tab
  Añadir a tus favoritos
  Imprimir
Electric_funeral
      by
Black Sabbath

This is a pretty easy song.  The other version of this song is just a
bit off.  This version is nearly 100% correct.

Standard Tuning



riff1

|------------------------|
|------------------------|
|------------------------|
|------h-----------------|
|-----2-3-2-------h------|
|-0-0---------0-2-3-2----|


Song riff

|-------------------|
|-------------------|
|-------------------|
|-------------------|
|-----2----1----0---|
|-0--------------3--|


|--------------|------------12--12--12--12--12--|-----------12--12--12-
|--------------|------------12--12--12--12--12--|-----------12--12--12-
|--------------|------------12--12--12--12--12--|-----------12--12--12-
|--------------|--------------------------------|----------------------
|---14-13-12---|--14-12-14----------------------|-14-12-14-------------
|---12-11-10---|--12-10-12----------------------|-12-10-12-------------
                                                                


Riff3
|-------------------|---------------------|---------------
|-------------------|---------------------|---------------
|----12-14-12-14^---|----12-14-14^-12-----|---------------
|-14----------------|-14--------------14--|---------------
|-------------------|---------------------|---------------
|-------------------|---------------------|---------------



riff4
(that part when Ozzy goes: Electric funeral!!)
|-----)---)---)---)---|
|---16--16--16--16----|
|---------------------|
|---------------------|
|---------------------|
|---------------------|



riff5
|--------------------------|
|--------------------------|
|--------------------------|
|-12--12--12—-14---/1814--|
|--------------------------|
|--------------------------|


		   
AcordesyTabs.com © 2008 Acordes y Tablaturas para guitarra. Tabs and Chords for guitar. Aviso Legal - Contacto
El uso de este sitio está sujeto a la aceptación de los términos y condiciones (47 usuarios online)