tablaturas, partituras y acordes para guitarra
Busca por banda/artista:
 
y/o título de la canción:
A B C D E F G H I J K L M N O P Q R S T U V W X Y Z 0 1 2 3 4 5 6 7 8 9 / Top 100 tabs
Categorías
Usuarios
usuario:
Darse de alta
password:
Artistas más visitados
Publicidad
TOP acordes y tablaturas de System Of A Down


Estás en: Inicio > Letra S > Acordes y tablaturas de System Of A Down > Kill Rock'N Roll
Kill Rock'N Roll
de System Of A Down
Puntúa este acorde/tab:      
(0.5/5)
Reportar este acorde/tab
  Añadir a tus favoritos
  Imprimir
Pues esta tablatura es del nuevo album de system llamado "hipnotize" y esta rola
chequenla, ahora solo he saca el intro pero ustedes pruebenlo y pongan mas..

--------------------------------------------------------------------------------
--------------------------------------------------------------------------------
--------------------------------------------------------------------------------
----11------          ------------11----          ------------10-----        ---
-9-----------  x8   -------8------------   x8 --------8------------  x8  -----  
--------------------------------------------------------------------------------
 
o también
--------------------------------------------------------------------------------
--------------------------------------------------------------------------------
--------------------------------------------------------------------------------
11---------           ------11----------         -------10----------        ----
-9-----------   x8   -------8------------   x8 --------8------------  x8  ----- 
--------------------------------------------------------------------------------

           hotchoscar@hotmail.com
          shaw.shadows@gmail.com
           masacrade@yahoo.com
		   
AcordesyTabs.com © 2008 Acordes y Tablaturas para guitarra. Tabs and Chords for guitar. Aviso Legal - Contacto
El uso de este sitio está sujeto a la aceptación de los términos y condiciones (43 usuarios online)