tablaturas, partituras y acordes para guitarra
Busca por banda/artista:
 
y/o título de la canción:
A B C D E F G H I J K L M N O P Q R S T U V W X Y Z 0 1 2 3 4 5 6 7 8 9 / Top 100 tabs
Categorías
Usuarios
usuario:
Darse de alta
password:
Artistas más visitados
Publicidad
TOP acordes y tablaturas de System Of A Down


Estás en: Inicio > Letra S > Acordes y tablaturas de System Of A Down > This cocaine makes me feel like i'm on this song
This cocaine makes me feel like i'm on this song
de System Of A Down
Puntúa este acorde/tab:      
(0.3/5)
Reportar este acorde/tab
  Añadir a tus favoritos
  Imprimir
6.This Cocaine Makes Me Feel Like I'm On This Song

intro:1
E|---------------------------------------------||
B|---------------------------------------------||
G|---------------------------------------------||
D|--5-5------5-8-7-7------5-7-8-8------8-7-5-5-||
A|--5-5-rest-5-8-7-7-rest-5-7-8-8-rest-8-7-5-5-||
D|--5-5------5-8-7-7------5-7-8-8------8-7-5-5-||

intro 2:twice
E|----------------------||
B|----------------------||
G|---------7-7-7-7^-7---||  2x
D|-5-8-7-7--------------||
A|-5-8-7-7--------------||
D|-5-8-7-7--------------||

E|----------------------||
B|----------------------||
G|---------8-8-8-8^-8---|| 1x
D|-5-7-8-8--------------||
A|-5-7-8-8--------------||
D|-5-7-8-8--------------||

E|----------------------||
B|----------------------||
G|---------7-7-7-7^-7---||
D|-8-7-5-5--------------|| 1x
A|-8-7-5-5--------------||
D|-8-7-5-5--------------||

intro 3:
E|----------------||
B|----------------||
G|----------------||
D|-8-7-8-7-8-5----|| 4x
A|-8-7-8-7-8-5----||
D|-8-7-8-7-8-5----||

E|----------------||
B|----------------||
G|----------------||
D|-8-7-8-7-8-5----|| 4x
A|----------------||
D|----------------||

verse
E|----------------||
B|----------------||
G|-7-7-7-7-7-7-7--|| buncha x
D|----------------||
A|----------------||
D|----------------||


then just g or [555xxx] lots times where its sketchy

intro 1: 1x
intro 2: 2x
intro 3: 1x
verse: lots of times
then just repeat lots of times!



		   
AcordesyTabs.com © 2008 Acordes y Tablaturas para guitarra. Tabs and Chords for guitar. Aviso Legal - Contacto
El uso de este sitio está sujeto a la aceptación de los términos y condiciones (17 usuarios online)