tablaturas, partituras y acordes para guitarra
Busca por banda/artista:
 
y/o título de la canción:
A B C D E F G H I J K L M N O P Q R S T U V W X Y Z 0 1 2 3 4 5 6 7 8 9 / Top 100 tabs
Categorías
Usuarios
usuario:
Darse de alta
password:
Artistas más visitados
Publicidad
TOP acordes y tablaturas de Metallica


Estás en: Inicio > Letra M > Acordes y tablaturas de Metallica > Bass doodle for guitar
Bass doodle for guitar
de Metallica
Puntúa este acorde/tab:      
(0.1/5)
Reportar este acorde/tab
  Añadir a tus favoritos
  Imprimir
---------------------------------------------------------------------------     
-------------------------------------------------------------------------------
Tabbed by: ‹(·m·Ř·®·®·î·§·)›
Email: morrischf@gmail.com

Tuning: Tune down ˝ step (Eb)

Well Well, This is my first tab.. I hope is 100 % correct..
The first part of this Song is performed on Bass.. but i Perfom it  on my guitar
Enjoy

Tune down a little bit the First string ... only a little
                                    
                                   X2
e|---------------------------------------------------------------------------|
B|---------------------------------------------------------------------------|
G|---------------------------------------------------------------------------|
D|-7-9-7-6---7-9-7-6---7-6----------7--------7-------------------------------|
A|-------------------------9-7-4-------4---4---4-----------------------------|
E|0------------------------------5-------5-------5------0--0-----------------|

                                    X2
e|---------------------------------------------------------------------------|
B|---------------------------------------------------------------------------|
G|---------------------------------------------------------------------------|
D|-----4-----4--------4--------4----------------5------5-------5-5-----------|
A|------5------5---5----5----5---5-----------2-----2------2------------------|
E|5 5-----5------5--------5--------5-------3---------3-------3---------------|
                                  X2
e|---------------------------------------------------------------------------|
B|---------------------------------------------------------------------------|
G|---------------------------------------------------------------------------|
D|-7-9-7-6---7-9-7-6---7-6----------7--------7-------------------------------|
A|-------------------------9-7-4-------4---4---4-----------------------------|
E|0------------------------------5-------5------- 5------ 0-- 0--------------|

                                   X1
e|---------------------------------------------------------------------------|
B|---------------------------------------------------------------------------|
G|---------------------------------------------------------------------------|
D|-----4-----4--------4--------4----------------5------5-------5-5-----------|
A|------5------5---5----5----5---5-----------2-----2------2------------------|
E|5 5-----5------5--------5--------5-------3---------3-------3---------------|

                                   X1 (Last time finish a little different)
e|---------------------------------------------------------------------------|
B|---------------------------------------------------------------------------|
G|---------------------------------------------------------------------------|
D|-----4-----4--------4--------4----------------5------5---------------------|
A|------5------5---5----5----5---5-----------2-----2---2---------------------|
E|5 5-----5------5--------5--------5-------3---------3-----------------------|

Well Well.. Here comes the Hardest Part of this song .. 
                                   X6
e|---------------------------------------------------------------------------|
B|---------------------------------------------------------------------------|
G|---------------------------------------------------------------------------|
D|-3---3------*-7-------*5-------3---------2------2-------*5-----*-3-----2---|
A|--5----5--------5-------5------------------3------3------- 3------3--------|
E|5--5-----5--------5-------5---------5--------5-------5-------5-----5-------|
* Let me explain you . In this positions i use the last Finger .. but if is too 

The Bass continues doing that stuff .. while Another guitar (kirkk) comes doing 
Whit Volume Pedal & Distortion

e|---------------------------------------------------------------------------|
B|---------------------------------------------------------------------------|
G|------------9--------9------------------------9--------9-------------------|
D|-------10---------------12-10-12---------10----------------12 10-12--------|
A|12-12-----------12-------------------12----------12------------------------|
E|---------------------------------------------------------------------------|

e|---------------------------------------------------------------------------|
B|12b-10--------12b-10-------------------------------------------------------|
G|--------9----------------------------------9-------9-----------------------|
D|-----------10----------11--12--------10--------------12--10----------------|
A|----------------------------------12-------- 12----------------------------|
E|---------------------------------------------------------------------------|

Again the Bass

e|---------------------------------------------------------------------------|
B|---------------------------------------------------------------------------|
G|------------------------------------------------------------1- 2--4--------| 
D|---0-------------------------------- 0--------------------2----------------|  
A|2----2--2--4----4--5-3-----------2----2-----------------2------------------|
E|-3-----3------5------------------- 3----3--5---2---0--4--------------------|

While the bass does that.. The guitar does this (Whit Distortion)
e|------------------585858585858---------------------------------------------|
B|---------------------------------------------------------------------------|
G|------7-----------------------------------------------------1--2--4--------|
D|------7---------------------------------------------------2----------------|
A|-2-3--5----2--3-------------------2-3----7------2--------2-----------------|
E|3---------3----------------------3-------------3----0---4------------------|



e|-------12---------3---353-2----------12---------2---2-----3-2--------------|
B|-----------12----------------------------12---------0----------------------|
G|---------------------------------------------------------------------------|
D|---------------------------------------------------------------------------|
A|---------------------------------------------------------------------------|
E|0-------------------------------0------------------------------------------|

e|0------12---------------------|-------12-----------------------------------|
B|-----------12-----------------|-----------12-------------------------------|
G|--------------------------------|------------------------------------------|
D|--------------------------------|------------------------------------------|
A|--------------------------------|------------------------------------------|
E|0-------------------------------|0-----------------------------------------|

e|------<12>---------------------|-------12----------------------------------|
B|-----------<12>-----------------|-----------12-----------------------------|
G|--------------------------------|---------------12-------------------------|
D|--------------------------------|------------------------------------------|
A|--------------------------------|------------------------------------------|
E|0-------------------------------|0-----------------------------------------|
                                  X6
e|----------------|----------------|-----------------------------------------|  
B|----------------|----------------|-----------------------------------------|  
G|------0-------0-|------0---------|-----------------------------------------|  
D|----4-------5---|----7-------0---|-----------------------------------------|  
A|--2-------3-----|--5-------4-----|2--4-------------------------------------|  
E|0-------0-------|0-------5---5-3-|--2----0---------------------------------|  


And then ... Finally ... "NOTHING ELSE MATTERS"
I think you know how is that ...

Well that`s all .. enjoy
Any coments or corrections at morrischf@gmail.com
		   
AcordesyTabs.com © 2008 Acordes y Tablaturas para guitarra. Tabs and Chords for guitar. Aviso Legal - Contacto
El uso de este sitio está sujeto a la aceptación de los términos y condiciones (26 usuarios online)