tablaturas, partituras y acordes para guitarra
Busca por banda/artista:
 
y/o título de la canción:
A B C D E F G H I J K L M N O P Q R S T U V W X Y Z 0 1 2 3 4 5 6 7 8 9 / Top 100 tabs
Categorías
Usuarios
usuario:
Darse de alta
password:
Artistas más visitados
Publicidad
TOP acordes y tablaturas de Metallica


Estás en: Inicio > Letra M > Acordes y tablaturas de Metallica > Master of Puppets Intro (Beginners)
Master of Puppets Intro (Beginners)
de Metallica
Puntúa este acorde/tab:      
(0.6/5)
Reportar este acorde/tab
  Añadir a tus favoritos
  Imprimir
Artist: Metallica
Song: Master of Puppets
Album: Master of Puppets
Tabbed by: Gunther Fox

This is a simplified version of the into to MoP.  I moved most of it 
to the E string to make is easier to play.  Also, when two or more 
notes are played at once, I cut out the insignificant one(s).  I hope 
this helps.   :D


*Play Four Times 4X*
|--------------------------------------------------------------------|
|--------------------------------------------------------------------|
|--------------------------------------------------------------------|
|--------------------------------------------------------------------|
|--------------------------------------------------------------------|
|-0-0-12-0-11-0-10-9-8-----0-0-7-0-6-0-5-4-3-2-----------------------|

*Play Two Times 2X*
|--------------------------------------------------------------------|
|--------------------------------------------------------------------|
|--------------------------------------------------------------------|
|--------------------------------------------------------------------|
|--------------------------------------------------------------------|
|-0-0-7--0-8--0-9--0-8----0-7-7---0-0-7-0---8-0-0--87---87---87---|

|--------------------------------------------------------------------|
|--------------------------------------------------------------------|
|--------------------------------------------------------------------|
|--------------------------------------------------------------------|
|--------------------------------------------------------------------|
|-0-0-7--0-8--0-9--0-8----0-7-7---0-0-7-0---8-0---9---0-8---0-7------|

|--------------------------------------------------------------------|
|--------------------------------------------------------------------|
|--------------------------------------------------------------------|
|--------------------------------------------------------------------|
|--------------------------------------------------------------------|
|-0-0-7--0-8--0-9--0-8----0-7-7---0-0-7-0---8-0-0--87---87---87---|

|--------------------------------------------------------------------|
|--------------------------------------------------------------------|
|--------------------------------------------------------------------|
|--------------------------------------------------------------------|
|--------------------------------------------------------------------|
|-0-0-7--0-8--0-9--0-8----0-7-7---0-0-7-0---8-0---9---0-8---0-7------|

|--------------------------------------------------------------------|
|--------------------------------------------------------------------|
|--------------------------------------------------------------------|
|--------------------------------------------------------------------|
|--------------------------------------------------------------------|
|-0-0-7--0-8--0-9--0-8----0-7-7---0-0-7-0---8-0-0--87---87---87---|


|--------------------------------------------------------------------|
|--------------------------------------------------------------------|
|--------------------------------------------------------------------|
|-------------------------8------8------8------8------8--------------|
|-----------------------7------7------7------7------7----------------|
|-87---87---87--0--0------0------0------0------0------------------|
		   
AcordesyTabs.com © 2008 Acordes y Tablaturas para guitarra. Tabs and Chords for guitar. Aviso Legal - Contacto
El uso de este sitio está sujeto a la aceptación de los términos y condiciones (21 usuarios online)