tablaturas, partituras y acordes para guitarra
Busca por banda/artista:
 
y/o título de la canción:
A B C D E F G H I J K L M N O P Q R S T U V W X Y Z 0 1 2 3 4 5 6 7 8 9 / Top 100 tabs
Categorías
Usuarios
usuario:
Darse de alta
password:
Artistas más visitados
Publicidad
TOP acordes y tablaturas de Bon Jovi


Estás en: Inicio > Letra B > Acordes y tablaturas de Bon Jovi > Wanted Dead or Alive MTV Acoustic
Wanted Dead or Alive MTV Acoustic
de Bon Jovi
Puntúa este acorde/tab:      
(0.6/5)
Reportar este acorde/tab
  Añadir a tus favoritos
  Imprimir
-------------------------------------------------------------------------------
   Wanted Dead or Alive  (MTV acoustic intro) - Bon Jovi
-------------------------------------------------------------------------------
Tabbed by: stachu
Email:stachu2@o2.pl

Tuning: EADGBA (standard)

                            3x
e|------5-----------5---------||-----5---------------0--|
B|------------5-----------5---||-----------5---------3--|
G|*--7-----7-----7-----7-----*||--7-----7-----7------2--|
D|*--0-----------0-----------*||--0-----------0------0--|
A|----------------------------||------------------------|
E|----------------------------||------------------------|


                                                              
e|-----5--------5--------5-----5----|--5--------0-----0-----0--|
B|-----------5-----5-----------5----|--6-----6-----------8-----|
G|--7-----7-----------7-----7--7----|-----7--------7-----------|
D|--0-----------------0--------0----|-----0--------0-----------|
A|----------------------------------|--------------------------|
E|----------------------------------|--------------------------|


                                                      
e|--------5--0-----0-----0--|--------5--0-----0-----0--|
B|-----6--------------8-----|-----6--------------8-----|
G|--7-----------7-----------|--7-----------7-----------|
D|--0-----------0-----------|--0-----------0-----------|
A|--------------------------|--------------------------|
E|--------------------------|--------------------------|


                                                
e|-----------0--------------0-|------------------|
B|--------6-------------6-----|------------------|
G|--7--5---------7---5--------|------------------|
D|--0------------0---0--------|------------------|
A|----------------------------|------------------|
E|----------------------------|------------------|


                                                        
e|---------------13---------12----|-------10--------8---
B|--------------------------------|---------------------
G|------------14----14---12----12-|----10----10---9---9-
D|----------0----------0----------|--0----------0------- ...and so on
A|--------------------------------|---------------------
E|--------------------------------|---------------------




| /  slide up
|   slide down
| h  hammer-on
| p  pull-off
| ~  vibrato
| +  harmonic
| x  Mute note

This is an intro of acoustic version of "Wanted Dead or Alive" by Bon Jovi
that was probably one of their many MTV performances
I decided to tab it out because I hadn't found any tab in the Internet
this is my first tab so if you'll have any corrections please mail me - stachu2@

It sounds ok like this
Enjoy!

===============================================================================
		   
AcordesyTabs.com © 2008 Acordes y Tablaturas para guitarra. Tabs and Chords for guitar. Aviso Legal - Contacto
El uso de este sitio está sujeto a la aceptación de los términos y condiciones (11 usuarios online)