tablaturas, partituras y acordes para guitarra
Busca por banda/artista:
 
y/o título de la canción:
A B C D E F G H I J K L M N O P Q R S T U V W X Y Z 0 1 2 3 4 5 6 7 8 9 / Top 100 tabs
Categorías
Usuarios
usuario:
Darse de alta
password:
Artistas más visitados
Publicidad
TOP acordes y tablaturas de Metallica


Attitude
de Metallica
Puntúa este acorde/tab:      
(0.1/5)
Reportar este acorde/tab
  Añadir a tus favoritos
  Imprimir

Metallica
Attitude
written by Hetfield and Ulrich
as performed on ReLoad
tab by Russell Crockett


tune all guitars down 1/2 step

|-----------------|-----------------|-----------------|-----------------|
|------REST-------|------REST-------|-----------------|-----------------|
|-----------------|-----------------|-----------------|-----------------|
|-----------------|-----------------|-0-3---3---3---5-|-(5)-------------|


|-----------------|-----------------|-----------------|-----------------|-----------------|
|-----------------|-----------------|-----------------|-----------------|-----------------|
|-----------------|-----------------|-----------------|-----------------|---------------7-|
|-(5)-------------|-(5)-------------|-(5)-------------|-(5)-------------|-(5)--------0---|



|--------------------|-------------------|-------------------|--------------------|
|o-------------------|-------------------|-------------------|-------------------o|
|o-(7)------------7-|-(7)------------7-|-(7)--------------|-------------5---7-o|
|------0-0-0-0-0-0---|-----0-0-0-0-0-0---|-----0-0-0-0-0-0-3-|-(3)-5-5-0-5--------|


|--------------------|-------------------|-------------------|-------------------|
|o-------------------|-------------------|-------------------|-------------------|
|o-(7)------------7-|-(7)------------7-|-(7)--------------|-------------5---7-|
|------0-0-0-0-0-0---|-----0-0-0-0-0-0---|-----0-0-0-0-0-0-3-|-(3)-5-5-0-5-------|


|-------------------|-------------------|-------------------|-------------------|
|-------------------|-------------------|-------------------|-------------------|
|-(7)------------7-|-(7)------------7-|-(7)--------------|-------------5---7-|
|-----0-0-0-0-0-0---|-----0-0-0-0-0-0---|-----0-0-0-0-0-0-3-|-(3)-5-5-0-5-------|


|-------------------|-----------------|-----------------|-----------------|
|-------------------|-----------------|-----------------|-----------------|
|-(7)---------------|-----------------|-----------------|-----------------|
|-----0-0-0-0-0-0-0-|-0-0-0-0-0-0-0-3-|-3---0---0---0-0-|/5-5-5-3---0-0-3-|


|-----------------|-----------------|-----------------|-----------------|
|-----------------|-----------------|-----------------|-----------------|
|-----------------|-----------------|-----------------|-----------------|
|-3---0---0---0-0-|-3-3-3-5---0-0-3-|-3---0---0---0-0-|/5-5-5-3---0-0-3-|


|-----------------|------------------|-----------------|-----------------|
|-----------------|------------------|-----------------|-----------------|
|-----------------|----7-7-7-7-7-7-7-|-----------------|-----------------|
|-3---0---0---0-0-|(0)-0-0-0-0-0-0-0-|-0-0-0---0---0-0-|-0-0-0-0---0-0-0-|


|-----------------|-----------------|-----------------|-----------------|
|-----------------|-----------------|-----------------|-----------------|
|-----------------|-----------------|-----------------|-----------------|
|-0-0-0---0---0-0-|-0-0-0-0---0-0-0-|-0-0-0---0---0-0-|-0-0-0-0---0-0-0-|


|-----------------|-----------------|-----------------|------------------|
|-----------------|-----------------|-----------------|------------------|
|-----------------|-----------0-3-0-|-5-5-5-6-0-0-3---|(3)-3---3-3-0-3-0-|
|-0-0-0---0---0-0-|-0-0-0-0-0-------|-----------------|------------------|


|-----------------|------------------|-----------------|-----------------|
|-----------------|------------------|-----------------|-----------------|
|-5-5-5-6-0-0-3---|(3)-3---3-3-0-3-0-|-5-5-5-6-0-0-3---|-----------------|
|-----------------|------------------|-----------------|-0-3---3---3---3-|


|-----------------|------------------|-----------------|------------------|
|-----------------|------------------|-----------------|------------------|
|-----------------|------------------|-----------------|------------------|
|-5-5-5-6-0-0-3---|(3)-0-0-0-0-0-3-0-|-5-5-5-6-0-0-3---|(3)-0-0-0-0-0-3-0-|

                                                        1.________________
|-----------------|------------------|-----------------|-----------------|
|-----------------|------------------|-----------------|-----------------|
|-----------------|------------------|-----------------|-----------------|
|-5-5-5-6-0-0-3---|(3)-0-0-0-0-0-3-0-|-5-5-5-6-0-0-3---|-0-3---3---3---5-|

______________________________________________________  2._______________
|-----------------|-----------------|------------------|-----------------|
|-----------------|-----------------|-----------------o|-----------------|
|-----------------|-----------------|---------------7-o|-----------------|
|(5)--------------|(5)--------------|(5)----------0----|-0-3---3---3---5-|


|-----------------|------------------|-----------------|------------------|
|-----------------|------------------|-----------------|------------------|
|-----------------|------------------|-----------------|------------------|
|-5-5-5-6-0-0-3---|(3)-0-0-0-0-0-3-0-|-5-5-5-6-0-0-3---|(3)-0-0-0-0-0-3-0-|


|-----------------|------------------|-----------------|-----------------|
|-----------------|------------------|-----------------|-----------------|
|-----------------|------------------|-----------------|-----------------|
|-5-5-5-6-0-0-3---|(3)-0-0-0-0-0-3-0-|-5-5-5-6-0-0-3---|-0-3---3---3---5-|


|-----------------|-----------------|-----------------||
|-----------------|-----------------|-----------------||
|-----------------|-----------------|---------------7-||
|(5)--------------|(5)--------------|(5)----------0---||


|------------------|------------------|------------------|------------------|
|------------------|------------------|------------------|------------------|
|(7)------------7-|(7)------------7-|(7)--------------|------------5---7-|
|----0-0-0-0-0-0---|----0-0-0-0-0-0---|----0-0-0-0-0-0-3-|(3)-5-5-0-5-------|


|-------------------|-----------------|-------------------|-----------------|
|-------------------|-----------------|-------------------|-----------------|
|-(7)-------7-------|-----7---7-------|-------7---7-------|-----7---7-------|
|-------0-0-7-----0-|-0---7---7-----0-|-(0)---7---7-----0-|-0---7---7-----0-|


|-------------------|-----------------|-------------------|-------------------|
|-------------------|-----------------|-------------------|-------------------|
|-------7---7-------|-----7---7-------|-------7---7-------|-------7---7-------|
|-(0)---7---7-----0-|-0---7---7-----0-|-(0)---7---7-----0-|-(0)---7---7-------|


|-----------------|-------------------|-------------------|-----------------|
|-----------full--|-------------full--|-------------full--|-----------------|
|-7------(7)^-----|-(7)------(7)^-----|-(7)------(7)^---7|-----------------|
|-0---------------|-(0)---------------|-(0)---------------|-0-3---3---3---5-|


|-------------------|-----------------|-----------------|-----------------|
|-------------------|-----------------|-----------------|-----------------|
|-------------------|-----------------|-1---------------|-----------------|
|-(5)-5-5-5-5-5-5-5-|-5-5-5-5-5-0-3-0-|---3-0---0---0-0-|-0-0-0-0---0-3-0-|


|-----------------|-----------------|-----------------|-----------------|
|-----------------|-----------------|-----------------|-----------------|
|-1---------------|-----------------|-1---------------|-----------------|
|---3-0-0-0---0-0-|-0-0-0-0---0-3-0-|---3-0-0-0---0-0-|-0-0-0-0---0-3-0-|


|-----------------|-----------------|-----------------|-----------------|
|-----------------|-----------------|-----------------|-----------------|
|-1---------------|-7-7-5-7---5-----|-----------------|---------------0-|
|---3-0-0-0---0-0-|-------------7-5-|-0---0-0-0-0-0-0-|-3---3---3-3-3---|


|-----------------|-----------------|-----------------|-----------------|
|-----------------|-----------------|-2-2-2-2-2-2-2-4-|-5-5-5-5-5-5-5-|
|-2---2-2-2-2-2-2-|-2-3-3-3-3-2-2-3-|-----------------|-----------------|
|-----------------|-----------------|-----------------|-----------------|


|-----------------|-----------------||
|-----------------|-----------------||
|-2-2-2-2-2-2-2-2-|-5-------------7-||
|-----------------|-------------0---||


|--------------------|-------------------|-------------------|--------------------|
|o-------------------|-------------------|-------------------|-------------------o|
|o-(7)-----------/7-|-(7)-----------/7-|-(7)--------------|-------------5---7-o|
|------0-0-0-0-0-0---|-----0-0-0-0-0-0---|-----0-0-0-0-0-0-3-|-(3)-5-5-0-5--------|


|-------------------|-----------------|-----------------|-----------------|
|-------------------|-----------------|-----------------|-----------------|
|-(7)---------------|-----------------|-1---------------|-----------------|
|-----0-0-0-0-0-0-0-|-0-0-0-0-0-0-0-3-|---3-0---0---0-0-|-0-0-0-0---0-0-3-|


|-----------------|-----------------|-----------------|-----------------|
|-----------------|-----------------|-----------------|-----------------|
|-1---------------|-----------------|-1---------------|-----------------|
|---3-0-0-0---0-0-|-0-0-0-0---0-0-3-|---3-0-0-0-0-0-0-|-0-0-0-0---0-0-3-|


|-----------------|-----------------|-----------------|-----------------|
|-----------------|-----------------|-----------------|-----------------|
|-1---------------|-7-7-7-7-7-------|-1---------------|-----------------|
|---3-0-0-0---0-0-|-0-0-0-0-0-0-0-3-|---3-0-0-0---0-0-|-0-0-0-0---0-0-3-|


|-----------------|-----------------|-----------------|-----------------|
|-----------------|-----------------|-----------------|-----------------|
|-1---------------|-----------------|-1---------------|-----------------|
|---3-0-0-0---0-0-|-0-0-0-0---0-0-3-|---3-0-0-0---0-0-|-0-0-0-0---0-0-3-|


|-----------------|-----------------|-----------------|-------------------|
|-----------------|-----------------|-----------------|-------------------|
|-1---------------|-----------0-3-0-|-5-5-5-6-0-0-3---|-(3)-3---3-3-0-3-0-|
|---3-0-0-0---0-0-|-0-0-0-3-5-------|-----------------|-------------------|


|-----------------|-------------------|-----------------|-----------------|
|-----------------|-------------------|-----------------|-----------------|
|-5-5-5-6-0-0-3---|-(3)-3---3-3-0-3-0-|-5-5-5-6-0-0-3---|-----------------|
|-----------------|-------------------|-----------------|-0-3---3---3---3-|


|-----------------|-----------------|-----------------|-----------------|
|-----------------|-----------------|-----------------|-----------------|
|-----------------|-----------------|-------------7--|-----------------|
|-(5)-------------|-(5)-------------|-(5)-------------|-0-0-0-0-0-0-0-0-|


|-----------------|-----------------|-----------------|-------------------|
|-----------------|-----------------|-----------------|-------------------|
|-----------------|-----------------|-7---------------|-(7)-------5------|
|-0-0-0-0-0-0-0-0-|-0-3---3---3-----|-0---------------|-(0)---------------|

Tabed By Russell Crockett




		   
AcordesyTabs.com © 2008 Acordes y Tablaturas para guitarra. Tabs and Chords for guitar. Aviso Legal - Contacto
El uso de este sitio está sujeto a la aceptación de los términos y condiciones (80 usuarios online)