tablaturas, partituras y acordes para guitarra
Busca por banda/artista:
 
y/o título de la canción:
A B C D E F G H I J K L M N O P Q R S T U V W X Y Z 0 1 2 3 4 5 6 7 8 9 / Top 100 tabs
Categorías
Usuarios
usuario:
Darse de alta
password:
Artistas más visitados
Publicidad
TOP acordes y tablaturas de Misc television


Estás en: Inicio > Letra M > Acordes y tablaturas de Misc television > Suicide is painless
Suicide is painless
de Misc television
Puntúa este acorde/tab:      
(0.4/5)
Reportar este acorde/tab
  Añadir a tus favoritos
  Imprimir

This is my adaptation of...

Suicide is Painless - Theme from M*A*S*H + manic street preachers

intro.

E|--------------------|---------------------3
B|--1-0---------1-0---|--1-0-----------1-0---
G|--2----2------2---2-|--2----2--------2-----
D|-2------2----2------|-2------2------2------
A|0-----------0-------|0-------------0-------
E|----------3--------3|------------3---------

Verse 

1---0-1-0--1-0------|---0---0---0--------0-
2-2--------0---3----|-----3---3---3---1----
2--2-------0-----0-0|-0--------------------
----------X------0-|---2------------2-----
-----------X--------|3------3---0----------
-----------3--------|----------------------

1-------------------|----------------0---3-|
3---1-3--1--3-1-0--3|1---0--1----3---1-----|
2--2--------0-------|0------0--------2-----|
-----0-----0-------|2--2---2--------2-----|
------------X-------|3------3--------0-----|
------------3-------|----------------------|


Chorus

E|---5-5-5-5-5--------|----------------------
B|---6-8-6-8-6-8-6----|---5-3-5--3--5--3---5-
G|-7---------------7--|---5-5-5--5--5--5-5---
D|-----------0-------0|-5--------------------
A|5-------------------|3------------0--------
E|--------------------|----------------------

1-3-5-8-10-8--------|5---------------------|
3-------12---10--8--|5---------------------|
2-------------------|5---------------------|
-------------------|7---------------------|
--------10----------|7---------------------|
--------------------|5---------------------|


Through Early morning fog I see
Visions of the things to be
The pains that are withheld for me
I realise and I can see
    
  That Suicide is Painless
  It brings on many changes
  And I can  take or leave it if I please

Try to find a way to make
All our little joys relate
Without that ever present hate
But now I know that it's too late
And 

The game of life is hard to play
I'm going to lose it anyway
The losing card I'll someday lay
So this is all I have to say

enjoy..

any comments to mike@stewart7d.fsnet.co.uk

		   
AcordesyTabs.com © 2008 Acordes y Tablaturas para guitarra. Tabs and Chords for guitar. Aviso Legal - Contacto
El uso de este sitio está sujeto a la aceptación de los términos y condiciones (32 usuarios online)