tablaturas, partituras y acordes para guitarra
Busca por banda/artista:
 
y/o título de la canción:
A B C D E F G H I J K L M N O P Q R S T U V W X Y Z 0 1 2 3 4 5 6 7 8 9 / Top 100 tabs
Categorías
Usuarios
usuario:
Darse de alta
password:
Artistas más visitados
Publicidad
TOP acordes y tablaturas de Aerosmith


Jaded
de Aerosmith
Puntúa este acorde/tab:      
(0.7/5)
Reportar este acorde/tab
  Añadir a tus favoritos
  Imprimir
#----------------------------------PLEASE NOTE--------------------------------#
#This file is the author's own work and represents their interpretation of the#
#song. You may only use this file for private study, scholarship, or research.#
#-----------------------------------------------------------------------------#

Jaded

Aerosmith

by Brian S. (SIDE B)

(Guitar 2 plays chords)


Intro :    Asus2   >  >      >
e----------------------|--------------------------------------|
b----------------------|--------------------------------------|
g----------------------|o-------------------------------------|
d-----------7vvvvvvvvvv|o--6vvvvv(6)-6--6--6--6--4---6--6b7r6-|
a----------------------|---0vvvvv(0)--------------------------|
e----------------------|--------------------------------------|
      >  >  D5  _____________1__________
e--------------------------------------------|------------------------|
b---------------------------------------------------------------------|
g------------------------------------------4vv(6)vvvv--6--4-4--4-6vv-o|
d--4--6--4----6vvvvvvvv(6)--6b7r6--4--6--4-6vv(4)vvvv--4--4-4--4-0vv-o|
a-------------0vvvvvvvv(0)--------------------------------------------|
e---------------------------------------------------------------------|

    Verse:

  ________2________ Asus2
e|-----------------|--------0----0------------------------------|
b------------------|--------0----0------------------------------|
g-6--6--4--4--4-2vv|vvv-----2----2--2---------------------------|
d-4--4--4--4--4----|--------2----2--2---------------------------|
a------------------|--------0-------0..................---------|
e------------------|--------------------------------------------|
 Hey   J-J-Jaded    U got your mommas style

       D        B
e------------------------------------------------------------|
b-------------3--------4-------------------------------------|
g-------------2--------4-------------------------------------|
d-------------0--------4-------------------------------------|
a----------------------2-------------------------------------|
e------------------------------------------------------------|
  but youre yesterdays    child to me.

Pre-Chorus :
    BmvII
e---7~~~(7)vvvvvvvvv-----------------------------------------|
b---7~~~(7)vvvvvvvvv-----------------------------------------|
g---7~~~(7)vvvvvvvvv-----------------------------------------|
d---9~~~(9)vvvvvvvvv-----------------------------------------|
a------------------------------------------------------------|
e------------------------------------------------------------|
     Youre getting it all over......

Chorus :

  A      Asus2    F#m7   F#m11         C#m     E              
  My     My   baby         Blue             Yeah      I      been   
       
                    A     Asus2   F#m7  F#m11       C#m  E 
  thinking   you.   My    my      baby         blue       Yeah youre so jaded,

D        Bm                                  Asus2  
  and    im   the   one   that   jaded   you.


Bridge : (Guitar 2 plays upstrokes of chords)
   
   E                        D                     E 
e--4----4----2-----0--------------4------2----0---------4----2----0--|
b--5--0---0-----0------------------------------------0-----0---0-----|
g--4---------------------------2------2----2-------------------------|
d---------------------------0---------------------2------------------|
a--------------------------------------------------------------------|
e--------------------------------------------------------------------|
Your thinking so complicated....... 

   Bm                   E      D             C               B
e-------4-----2----5-|--0------2---|--(2)--------|-------------|
b--------------------|--0------3---|--(3)----5---|-----(5)---4-|
g----2-----2----2----|--2------2---|--(2)----5---|-----(5)---4-|
d--0-----------------|--2------0---|--(0)----5---|-----(5)---4-|
a--------------------|--1----------|---------3---|-----(3)---2-|
e--------------------|--0----------|-------------|-------------|

   Bb       Asus2
e-----------|------------|------------|
b--3vvvvvvvvvvvvvvvvvvvvvvv------0----|  (Guitar Solo)
g--3vvvvvvvvvvvvvvvvvvvvvvv------2----|
d--3vvvvvvvvvvvvvvvvvvvvvvv------2----|
a--1vvvvvvvvvvvvvvvvvvvvvvv------0----|
e-----------|------------|------------|

Guitar Solo :
e------------------------------------------------------------|
b----------------------------------------------------------9v|
g--9----6-----2---------------2vvv--/6---9vvvvvvv(9)--11---|
d-----------------4--2vvvvv--4-------------------------------|
a------------------------------------------------------------|
e------------------------------------------------------------|

e----------------------12------------------------------------|
b-vv(9)---10---12b(14)-----12b(14)--10vvvv--12---9b10vvvr9---|
g------------------------------------------------------------|
d------------------------------------------------------------|
a------------------------------------------------------------|
e------------------------------------------------------------|

(3rd Verse)
e-----------------------------------------|
b-9b10vvvr9-9b10vvvr9-9b10vvvr9-9b10vvvr9-|
g-----------------------------------------|
d-----------------------------------------|
a-----------------------------------------|
e-----------------------------------------|
		   
AcordesyTabs.com © 2008 Acordes y Tablaturas para guitarra. Tabs and Chords for guitar. Aviso Legal - Contacto
El uso de este sitio está sujeto a la aceptación de los términos y condiciones (9 usuarios online)