tablaturas, partituras y acordes para guitarra
Busca por banda/artista:
 
y/o título de la canción:
A B C D E F G H I J K L M N O P Q R S T U V W X Y Z 0 1 2 3 4 5 6 7 8 9 / Top 100 tabs
Categorías
Usuarios
usuario:
Darse de alta
password:
Artistas más visitados
Publicidad
TOP acordes y tablaturas de Blink 182


Asthenia 2
de Blink 182
Puntúa este acorde/tab:      
(0.6/5)
Reportar este acorde/tab
  Añadir a tus favoritos
  Imprimir
posted by: I_Brake_For_Blink182

e-mail @:ibrakeforblink_182@yahoo.com


Intro (Light Distortion, lots of flanger):
e|-------------------------------|
B|-----7------------7------------|
G|-7------7-----7------7-----7---|
D|---7------7-----7------7-----7-|
A|------------5------------5-----|
E|-------------------------------|

Verse (Light Distortion, lots of flanger, low volume):
e|-------------------|
B|-------------------|
G|--7-7-7-7-7-7-7-7--|
D|-------------------|
A|-------------------|
E|-------------------| etc... repeat as necessary

Pre-Chorus Guitar 1 (Distorted, PM as indicated):
e|-------------------------------------------------------|
B|-------------------------------------------------------|
G|-76/7/9--76/7/9--76/7/9--76/7/9--76/7/9--76-6666-|
D|-x-x-x-x--x-x-x-x--x-x-x-x--x-x-x-x--x-x-x-x--x-x-xxxx-|
A|-54/5/7--54/5/7--54/5/7--54/5/7--54/5/7--54-4444-|
E|-------------------------------------------------------| Repeat x1
PM                                                  ....

Pre-Chorus Guitar 2 (Distorted, PM as indicated):
e|--------------------------------------------------|
B|--------------------------------------------------|
G|-7777777777777777---------------------------------|
D|-7777777777777777-4444444444444444-55555555-5555--|
A|-5555555555555555-4444444444444444-55555555-5555--|
E|------------------2222222222222222-33333333-3333--| Repeat x1
PM      ....

Chorus Guitar 1 (Distorted):
e|--------------------------------------------|
B|--------------------------------------------|
G|-66-7-7--66-7-7--66-7--22-7-7--22-7-7--22-7-|
D|-xx-x-x--xx-x-x--xx-x--xx-x-x--xx-x-x--xx-x-|
A|-44-5-5--44-5-5--44-5--00-5-5--00-5-5--00-5-|
E|--------------------------------------------| Repeat x1

Chorus Guitar 2 (Distorted):
e|--------------------------------------------|
B|--------------------------------------------|
G|----7-7-----7-7-----7-----7-7-----7-7-----7-|
D|-44-x-x--44-x-x--44-x--44-x-x--44-x-x--44-x-|
A|-44-5-5--44-5-5--44-5--44-5-5--44-5-5--44-5-|
E|-22------22------22----22------22------22---| Repeat x1

Repeat Intro (Light Distortion, lots of flanger):
e|-------------------------------|
B|-----7------------7------------|
G|-7------7-----7------7-----7---|
D|---7------7-----7------7-----7-|
A|------------5------------5-----|
E|-------------------------------|

Verse (Light Distortion, lots of flanger, low volume):
e|-------------------|
B|-------------------|
G|--7-7-7-7-7-7-7-7--|
D|-------------------|
A|-------------------|
E|-------------------| etc... repeat as necessary

Chorus Guitar 1 (Distorted):
e|--------------------------------------------|
B|--------------------------------------------|
G|-66-7-7--66-7-7--66-7--22-7-7--22-7-7--22-7-|
D|-xx-x-x--xx-x-x--xx-x--xx-x-x--xx-x-x--xx-x-|
A|-44-5-5--44-5-5--44-5--00-5-5--00-5-5--00-5-|
E|--------------------------------------------| Repeat x1

Chorus Guitar 2 (Distorted):
e|--------------------------------------------|
B|--------------------------------------------|
G|----7-7-----7-7-----7-----7-7-----7-7-----7-|
D|-44-x-x--44-x-x--44-x--44-x-x--44-x-x--44-x-|
A|-44-5-5--44-5-5--44-5--44-5-5--44-5-5--44-5-|
E|-22------22------22----22------22------22---| Repeat x1

Bridge Part A (Distorted, Listen to CD for Rhythm):
e|---------------------|
B|---------------------|
G|-7777-7777-7777-7777-|
D|-xxxx-xxxx-xxxx-xxxx-|
A|-5555-5555-5555-5555-|
E|---------------------| Repeat as necessary and bend notes...

Bridge Part B (Distorted, PM where indicated):
e|------------------------------------|
B|------------------------------------|
G|-77-7-7--11-11-11-12-12-12-12-9-9-9-|
D|-xx-x-x--x--x--x--x--x--x--x--x-x-x-|
A|-55-5-5--9--9--9--11-11-11-11-7-7-7-|
E|------------------------------------| Repeat x4 then play D5 part once
PM .. . .

Chorus Guitar 1 (Distorted):
e|--------------------------------------------|
B|--------------------------------------------|
G|-66-7-7--66-7-7--66-7--22-7-7--22-7-7--22-7-|
D|-xx-x-x--xx-x-x--xx-x--xx-x-x--xx-x-x--xx-x-|
A|-44-5-5--44-5-5--44-5--00-5-5--00-5-5--00-5-|
E|--------------------------------------------| Repeat until end

Chorus Guitar 2 (Distorted):
e|--------------------------------------------|
B|--------------------------------------------|
G|----7-7-----7-7-----7-----7-7-----7-7-----7-|
D|-44-x-x--44-x-x--44-x--44-x-x--44-x-x--44-x-|
A|-44-5-5--44-5-5--44-5--44-5-5--44-5-5--44-5-|
E|-22------22------22----22------22------22---| Repeat until end


           this is a really great song on their new cd
		   
AcordesyTabs.com © 2008 Acordes y Tablaturas para guitarra. Tabs and Chords for guitar. Aviso Legal - Contacto
El uso de este sitio está sujeto a la aceptación de los términos y condiciones (22 usuarios online)