tablaturas, partituras y acordes para guitarra
Busca por banda/artista:
 
y/o título de la canción:
A B C D E F G H I J K L M N O P Q R S T U V W X Y Z 0 1 2 3 4 5 6 7 8 9 / Top 100 tabs
Categorías
Usuarios
usuario:
Darse de alta
password:
Artistas más visitados
Publicidad
TOP acordes y tablaturas de Live


Estás en: Inicio > Letra L > Acordes y tablaturas de Live > Lakinis juice
Lakinis juice
de Live
Puntúa este acorde/tab:      
(0.3/5)
Reportar este acorde/tab
  Añadir a tus favoritos
  Imprimir

Lakini's Juice by Live   Bass Tab
>From Album, Secret Samadhi
Transcribed by R. Allen Canterbury

Note with ' above it means to bend the string 1/2 step
                   / means to slide up from previous note
                    means to slide down from previous note


Tuned down 1/2 step, Tune Eb down one step to Db

Guitar/Vocal Intro...No Bass.
Gb:-----------------------------------------|
Db:--------|=====================|----------|
Ab:--------|=====================|----------|
Db:-----------------------------------------|


  Bass In.  *With Heavy Distortion Througout                 (x4)
Gb:-------------------------------------------------------------|-----|
Db:*-----------------------------------------------------------*|-----|
Ab:*---------------------------------------------------------,-*|-----|
Db:---0--4--4-4-4--0--4--4-4-4--0--4--4-4-4--0--4--0--7---|--0--|
                           more wine..

                                                  1.         2.
                                                 |~~~~~~~~~~|~~~~~~~~~~~~~~~|
Gb:---------------------------------------------------------|---------------|
Db:*-------------------------------------------------------*|---------------|
Ab:*-------------------------------------------------------*|---------------|
Db:--4-4------4-4-5-----5-5-5---4-4------4-4-5----5-5-5-5---|-5-5-5-5-5-5-5-|


                                                        (x8)
Gb:-------------------------------------------------------------|-----|
Db:*-----------------------------------------------------------*|-----|
Ab:*---------------------------------------------------------,-*|-----|
Db:---0--4--4-4-4--0--4--4-4-4--0--4--4-4-4--0--4--0--7---|--0--|


                                                   1.        2.
                                                  |~~~~~~~~~|~~~~~~~~~~~~~~~|
Gb:---------------------------------------------------------|---------------|
Db:*-------------------------------------------------------*|---------------|
Ab:*------------------------------------------------,---,--*|---------------|
Db:--4-4------4-4-5------5-5-5---4-4------4-4-5----5-5-5-5--|-5-5-5-5-5-5-5-|


                                                 (x4)
Gb:-------------------------------------------------|
Db:*-----------------------------------------------*|
Ab:*-----------------------------------------------*|
Db:---0---0--8--8-8-8-8-8/--0---0--5--5-5-5-5-5/----|
 ride....                     let me ride...
 

                                                           (x6)
Gb:-------------------------------------------------------------|-----|
Db:*-----------------------------------------------------------*|-----|
Ab:*---------------------------------------------------------,-*|-----|
Db:---0--4--4-4-4--0--4--4-4-4--0--4--4-4-4--0--4--0--7---|--0--|
                        It was an evening i shared with the sun...


                                                   1.        2.
                                                  |~~~~~~~~~|~~~~~~~~~~~~~~~|
Gb:---------------------------------------------------------|---------------|
Db:*-------------------------------------------------------*|---------------|
Ab:*------------------------------------------------,---,--*|---------------|
Db:--4-4------4-4-5------5-5-5---4-4------4-4-5----5-5-5-5--|-5-5-5-5-5-5-5-|


                                               (x12)   (let ring & fade)
Gb:------------------------------------------------|---------------------|
Db:*----------------------------------------------*|---------------------|
Ab:*----------------------------------------------*|---------------------|
Db:---0---0--8--8-8-8-8-8/-0---0--5--5-5-5-5-5/----|--0------------------|
      ride....                       let me ride...
      
_________________
"Any similarities between this transcription and the actual song are purely
coincidental."
/---------------------------------------- 
|  ____    ____                          |
| (    `--'  .-'               _T_T_T_T_ |
| |8| O  O  |||||||||||||||||||[o o o o/ | 
| (__,--.____                 `~~~`--'  |
|     from the desk of jaco pastorius..  |
|            acanterb@vt.edu             |
|  http://www.vt.edu:10021/A/acanterb/   |
----------------------------------------/





		   
AcordesyTabs.com © 2008 Acordes y Tablaturas para guitarra. Tabs and Chords for guitar. Aviso Legal - Contacto
El uso de este sitio está sujeto a la aceptación de los términos y condiciones (27 usuarios online)