tablaturas, partituras y acordes para guitarra
Busca por banda/artista:
 
y/o título de la canción:
A B C D E F G H I J K L M N O P Q R S T U V W X Y Z 0 1 2 3 4 5 6 7 8 9 / Top 100 tabs
Categorías
Usuarios
usuario:
Darse de alta
password:
Artistas más visitados
Publicidad
TOP acordes y tablaturas de Jaguares


Estás en: Inicio > Letra J > Acordes y tablaturas de Jaguares > A Donde Vamos a Ir
A Donde Vamos a Ir
de Jaguares
Puntúa este acorde/tab:      
(0.3/5)
Reportar este acorde/tab
  Añadir a tus favoritos
  Imprimir
Bueno no se emocionen mucho pues solo es el acompañamiento 
pero se oye muy bien y ay les va si alguien se sabe los solos
pasenlos

   E
e|------------------|------------------|------------------|------------------|
B|------------------|------------------|------------------|------------------|
G|-----1------4-3-1-|-----1------4-3-1-|-----1------4-3-1-|-----1------4-3-1-|
D|-2-------2--------|-2-------2--------|-2-------2--------|-2-------2--------|
A|-2-2---2----------|-2-2---2----------|-2-2---2----------|-2-2---2----------|
E|------------------|------------------|------------------|------------------|

   E
e|------------------|------------------|------------------|------------------|
B|------------------|------------------|------------------|------------------|
G|-----1------4-3-1-|-----1------4-3-1-|-----1------4-3-1-|-----1------4-3-1-|
D|-2-------2--------|-2-------2--------|-2-------2--------|-2-------2--------|
A|-2-2---2----------|-2-2---2----------|-2-2---2----------|-2-2---2----------|
E|------------------|------------------|------------------|------------------|

   E
e|------------------|------------------|------------------|------------------|
B|------------------|------------------|------------------|------------------|
G|-----1------4-3-1-|-----1------4-3-1-|-----1------4-3-1-|-----1------4-3-1-|
D|-2-------2--------|-2-------2--------|-2-------2--------|-2-------2--------|
A|-2-2---2----------|-2-2---2----------|-2-2---2----------|-2-2---2----------|
E|------------------|------------------|------------------|------------------|

   E
e|------------------|------------------|------------------|------------------|
B|------------------|------------------|------------------|------------------|
G|-----1------4-3-1-|-----1------4-3-1-|-----1------4-3-1-|-----1------4-3-1-|
D|-2-------2--------|-2-------2--------|-2-------2--------|-2-------2--------|
A|-2-2---2----------|-2-2---2----------|-2-2---2----------|-2-2---2----------|
E|------------------|------------------|------------------|------------------|
   SABES              LA PASION ES      CRUEL                           NO LE

     C#m     
   IMPORTA LO QUE SUFRAS
           C
   NI LE IMPORTA LO QUE LLORES 
           B
   LO QUE IMPORTA ES SANGRAR

   E
e|------------------|------------------|
B|------------------|------------------|
G|-----1------4-3-1-|-----1------4-3-1-|
D|-2-------2--------|-2-------2--------|
A|-2-2---2----------|-2-2---2----------|
E|------------------|------------------|

   E
e|------------------|------------------|------------------|------------------|
B|------------------|------------------|------------------|------------------|
G|-----1------4-3-1-|-----1------4-3-1-|-----1------4-3-1-|-----1------4-3-1-|
D|-2-------2--------|-2-------2--------|-2-------2--------|-2-------2--------|
A|-2-2---2----------|-2-2---2----------|-2-2---2----------|-2-2---2----------|
E|------------------|------------------|------------------|------------------|
   SABES              LA  SOLEDAD  ES  FIEL                            NO TE

    C#m
   CAMBIA POR NINGUNO
            C
   NI TE ENGAÑA NI TRAICIONA
          B
   TE ACOMPAÑA HASTA EL FIN       
   E
e|------------------|------------------|
B|------------------|------------------|
G|-----1------4-3-1-|-----1------4-3-1-|
D|-2-------2--------|-2-------2--------|
A|-2-2---2----------|-2-2---2----------|
E|------------------|------------------|

   A
e|--------------|--------------|--------------|--------------|
B|-2-2----5-4-2-|-2-2----5-4-2-|-2-2----5-4-2-|-2-2----5-4-2-|
G|-2---2--------|-2---2--------|-2---2--------|-2---2--------|
D|-2------------|-2------------|-2------------|-2------------|
A|--------------|--------------|--------------|--------------|
E|--------------|--------------|--------------|--------------|
   AY                     A DONDE       VAMOS          A IR

   F#m
e|--------------|--------------|--------------|--------------|
B|--------------|--------------|--------------|--------------|
G|-2-2----5-4-2-|-2-2----5-4-2-|-2-2----5-4-2-|-2------------|
D|-4---2--------|-4---2--------|-4---2--------|-4------------|
A|-4------------|-4------------|-4------------|-4------------|
E|-2------------|-2------------|-2------------|-2------------|
   AY                     A DONDE       VAMOS        A ESTAR

   E
e|------------------|------------------|------------------|------------------|
B|------------------|------------------|------------------|------------------|
G|-----1------4-3-1-|-----1------4-3-1-|-----1------4-3-1-|-----1------4-3-1-|
D|-2-------2--------|-2-------2--------|-2-------2--------|-2-------2--------|
A|-2-2---2----------|-2-2---2----------|-2-2---2----------|-2-2---2----------|
E|------------------|------------------|------------------|------------------|

   E
e|------------------|------------------|------------------|------------------|
B|------------------|------------------|------------------|------------------|
G|-----1------4-3-1-|-----1------4-3-1-|-----1------4-3-1-|-----1------4-3-1-|
D|-2-------2--------|-2-------2--------|-2-------2--------|-2-------2--------|
A|-2-2---2----------|-2-2---2----------|-2-2---2----------|-2-2---2----------|
E|------------------|------------------|------------------|------------------|
   SABES              NO  SE  QUIEN  ERES  TU                         DE QUE      
 
    C#m
   LADO MASCA TU LENGUA
           C
   SI TE RIES CUANDO DUERMES
            B
   SI TE IMPORTA COMO SANGRO NO LO SE
   E
e|------------------|------------------|
B|------------------|------------------|
G|-----1------4-3-1-|-----1------4-3-1-|
D|-2-------2--------|-2-------2--------|
A|-2-2---2----------|-2-2---2----------|
E|------------------|------------------|


   A
e|--------------|--------------|--------------|--------------|
B|-2-2----5-4-2-|-2-2----5-4-2-|-2-2----5-4-2-|-2-2----5-4-2-|
G|-2---2--------|-2---2--------|-2---2--------|-2---2--------|
D|-2------------|-2------------|-2------------|-2------------|
A|--------------|--------------|--------------|--------------|
E|--------------|--------------|--------------|--------------|
   AY                     A DONDE       VAMOS          A IR

   F#m
e|--------------|--------------|--------------|--------------|
B|--------------|--------------|--------------|--------------|
G|-2-2----5-4-2-|-2-2----5-4-2-|-2-2----5-4-2-|-2-2----5-4-2-|
D|-4---2--------|-4---2--------|-4---2--------|-4---2--------|
A|-4------------|-4------------|-4------------|-4------------|
E|-2------------|-2------------|-2------------|-2------------|
   AY                     A DONDE       VAMOS        A ESTAR

   G                          Bm          A
e|-3------------------------|-----2-----|-----0-----|
B|-3------------------------|-------3---|-------2---|
G|-4------------------------|---4-----4-|---2-----2-|
D|-5------------------------|-4---------|-2---------|
A|-5------------------------|-----------|-----------|
E|-3------------------------|-----------|-----------|
   CERCA DEL FUEGO DENTRO DE UN SIGLO

   G                          Bm          A
e|-3------------------------|-----2-----|-----0-----|
B|-3------------------------|-------3---|-------2---|
G|-4------------------------|---4-----4-|---2-----2-|
D|-5------------------------|-4---------|-2---------|
A|-5------------------------|-----------|-----------|
E|-3------------------------|-----------|-----------|
   ENTRE LA PESTE SOLO TUS MANOS 

   G                          Bm          A
e|-3------------------------|-----2-----|-----0-----|
B|-3------------------------|-------3---|-------2---|
G|-4------------------------|---4-----4-|---2-----2-|
D|-5------------------------|-4---------|-2---------|
A|-5------------------------|-----------|-----------|
E|-3------------------------|-----------|-----------|
   CERCA DEL FUEGO DENTRO DE UN SIGLO

   G                          Bm          A
e|-3------------------------|-----2-----|-----0-----|
B|-3------------------------|-------3---|-------2---|
G|-4------------------------|---4-----4-|---2-----2-|
D|-5------------------------|-4---------|-2---------|
A|-5------------------------|-----------|-----------|
E|-3------------------------|-----------|-----------|
   ENTRE LA PESTE SOLO TUS MANOS 

   G                          Bm          A
e|-3------------------------|-----2-----|-----0-----|
B|-3------------------------|-------3---|-------2---|
G|-4------------------------|---4-----4-|---2-----2-|
D|-5------------------------|-4---------|-2---------|
A|-5------------------------|-----------|-----------|
E|-3------------------------|-----------|-----------|

   G                          Bm          A
e|-3------------------------|-----2-----|-----0-----|
B|-3------------------------|-------3---|-------2---|
G|-4------------------------|---4-----4-|---2-----2-|
D|-5------------------------|-4---------|-2---------|
A|-5------------------------|-----------|-----------|
E|-3------------------------|-----------|-----------|

ESO ES TODO EN VERDAD ES MUY FACIL SON SOLO 3 RIFFS PERO YO PUSE TODO
DISFRUTEN DE ESTA GRAN ROLA QUE ES MI FAVORITA Y REPITO SI ALGUIEN SE SABE
LOS SOLOS ENVIENMELOS EN DONDE ESTAN LOS ACORDES EL ACOMPAÑAMIENTO NO TOCA 
NADA PERO SI ESTAS TU SOLO TOCALOS PARA QUE SE OIGA CHIDO

DUDAS, COMENTARIOS, SUGERRENCIAS O LO QUE SEA A bsili@correoweb.com
		   
AcordesyTabs.com © 2008 Acordes y Tablaturas para guitarra. Tabs and Chords for guitar. Aviso Legal - Contacto
El uso de este sitio está sujeto a la aceptación de los términos y condiciones (17 usuarios online)