tablaturas, partituras y acordes para guitarra
Busca por banda/artista:
 
y/o título de la canción:
A B C D E F G H I J K L M N O P Q R S T U V W X Y Z 0 1 2 3 4 5 6 7 8 9 / Top 100 tabs
Categorías
Usuarios
usuario:
Darse de alta
password:
Artistas más visitados
Publicidad
TOP acordes y tablaturas de Marea


Estás en: Inicio > Letra M > Acordes y tablaturas de Marea > A la mierda primavera
A la mierda primavera
de Marea
Puntúa este acorde/tab:      
(0.3/5)
Reportar este acorde/tab
  Añadir a tus favoritos
  Imprimir
ESTA CANCIÓN SE LA DEDIKO A ALE (PIKACHU), MONERRI (MAFIAS), 
LAURA (K DICE K SOY BORDE), AL CAMELLO D LOS GARRES, A ANA 
(LA PAVA DE MI KLASE) A TODA LA GENTUZA DEL INFANTE Y DE LOS GARRES Y A MI PELO.
HECHARLE IMAGINACION K NO TENGO GANAS DE ESCRIBIR. 
SI TENEIS DUDAS ( K NO LO DUDO) MI KORREO ES  ANGELIN125HOTMAIL.COM
y al grupo 'EL ARBOL GRIS' EL MEJOR.

Riff 1 Y UN TROZO  DE INTRO.
---------------------------------------       
-----------------------------------------
-------------------------------------------
---------3----5---3-----5---7--------------
---7--0----0---0-----3---5-------5--------
-5---------------------------3--------------

-------------------------------------------
-----------------------------------------
-------------------------------------------
---------3----5---3-------------------------
---7--0----0---0------5----3----------------
-5-------------------3----1-----------------

riff 2 
---------------------------------------------------------
----------------------------------------------------------
---------------------------------------------------------
-------------------5-------------------------------------
----------7----3-------por 3 veces------5-----3-------
--------5-------------------------------3-----1--------
riff 3
-----------------------------------------------------------
-----------------------------------------------------------
-----------------------------------------------------------
------------7-----------------------------------------------
---------5--------7------5------------------------------------
---------------5------3--------------------------------------
riff 4
do5  sol5   re-5  los arpegios van asi todos menos la-5-sol5 k son:    la-5 sol5
-------------------o-------------    -  ---------------------------------------------
---------o------o---------------     -  ----------o---------------------------------
-------o------o-----------------     - --------o----o------+-rapido---------------
----o---------------------------      -------o---------o----------------------------
-o---------o-------------------      --------------------o-------------------------
--------------------------------      ----o------------------------------------------
riff5
-------------------------------------------------------------------------
-------------------------------------------------------------------------
------------------5------------5----------5----------------------------------
---------------5-------3----5------5---5------7---------------------------------
-------------3-------3----3------5---3------7-----------------------------------
-------------------1------------3----------5---------------------------------







A LA MIERDA PRIMAVERA

intro 

riff 1
Estaba encerrao para no ver a nadie,
abrí una rendija para oir el aire
y oí “ven pacá, cagüendiós”,
yo creí que eras... tú,
aullaron los vientos con su escandalera,
“no veas compadre, la que hay aquí afuera”,
no quiero saberlo, llevároslo todo, dejadme el silencio...
“Lo de antes kon distorsion y kosas”
Riff2
... dejadme que os cuente mi cuento de herida y caricias,
mi historia de nadie, mi nana del hambre, todas mis mentiras,
tal vez embelese y te bese cortándome a tiras,
si buscas deslumbre y encuentras alambre será que descuidas,
riff3
más que agua es aguarrás, lo que sudo al despertar
si te veo pasar sola,
se hacen charcos, se hacen olas,
y yo un barrio de chabolas que te quiere bien,
pa que te acuestes en él,
pa que te pierdas con él,
riff 2
... dejadme que invente que un tren es la libertad mía,
que va donde quiero, sin más traqueteo, sin más tontería,
tal vez no reviente de ganas de andar por la vía,
con penas a miles, borrando raíles, borrando los días,
riff3
más que agua es aguarrás, lo que sudo al despertar
si te veo pasar sola,
se hacen charcos, se hacen olas,
y yo un barrio de chabolas que te quiere bien,
pa que te acuestes en él,
pa que te pierdas con él,
riff 4 kon arpegios y después sin arpegios
no sé nada de correr, no sé nada de ascender,
de esta mierda de arcoiris, del cigarro de después, no sé,
si la vida pasa en cueros, castigao a la pared,
no sé nada de aguantar, no sé nada de achuchar,
de ponerme de rodillas, de llorar para mamar, no sé,
en cuanto acaben los tiros garabatos al papel,
que si me quedo con los dientes relucientes
y embarrao el corazón,
tu tic tac y el mío son el mismo son,
y eso sí que no...
riff 5 – 3
riff 2
... dejadme que os cuente mi cuento de herida y caricias,
mi historia de nadie, mi nana del hambre, todas mis mentiras,
riff4

que ésta es la pataleta que nos da mientras suspiras,
lo que queda del atraco que le dimos a la vida,
de las mantas que liamos todavía queda alguna,
esto queda de los halos que robamos a la luna,

riff 5
y voy entrándole al día,
y al salir le dejo la alfombra de mierda perdía,
que no se le olvide el planeta en que vive,
y otra vez a la acera,
y así me da la mañana y la tarde y la noche entera...
... y a la mierda primavera.
TERMINA KON UN TROZO DEL 2 RIFF
		   
AcordesyTabs.com © 2008 Acordes y Tablaturas para guitarra. Tabs and Chords for guitar. Aviso Legal - Contacto
El uso de este sitio está sujeto a la aceptación de los términos y condiciones (34 usuarios online)