tablaturas, partituras y acordes para guitarra
Busca por banda/artista:
 
y/o título de la canción:
A B C D E F G H I J K L M N O P Q R S T U V W X Y Z 0 1 2 3 4 5 6 7 8 9 / Top 100 tabs
Categorías
Usuarios
usuario:
Darse de alta
password:
Artistas más visitados
Publicidad
TOP acordes y tablaturas de Fun people


A mi manera
de Fun people
Puntúa este acorde/tab:      
(0.8/5)
Reportar este acorde/tab
  Añadir a tus favoritos
  Imprimir
(en condenas cambia el sonido)
1|---------------|---------------|
2|---------------|---------------|
3|---------------|---------------|
4|-3-3-3-3-3-3-3-|-5-5-5-5-5-5-5-|
5|-3-3-3-3-3-3-3-|-5-5-5-5-5-5-5-|
6|-1-1-1-1-1-1-1-|-3-3-3-3-3-3-3-|

Estribillo:(cada dos veces que dice wa you cambia al fa sostenido y vuelve)

 fa x5 fa#x5
1|-1-|--3----| 
2|-1-|--3----|
3|-2-|--4----|
4|-3-|--5----|
5|-3-|--5----|
6|-1-|--3----|

1|---------------|---------------|
2|---------------|---------------|
3|---------------|---------------|
4|-3-3-3-3-3-3-3-|-5-5-5-5-5-5-5-|
5|-3-3-3-3-3-3-3-|-5-5-5-5-5-5-5-|
6|-1-1-1-1-1-1-1-|-3-3-3-3-3-3-3-|


Estribillo:(cada dos veces que dice wa you cambia al fa sostenido y vuelve)

 fa x5 fa#x5
1|-1-|--3----| 
2|-1-|--3----|
3|-2-|--4----|
4|-3-|--5----|
5|-3-|--5----|
6|-1-|--3----|


1|---------------------------------------------------------|
2|---------------------------------------------------------|
3|---------------------------------------------------------|
4|-7-7-7-7-7--9-9-9-9-9-7-7-7-7-7-9-9-9-9-9-10-10-10-10-10-|
5|---------------------------------------------------------|
6|---------------------------------------------------------|


Estribillo:(cada dos veces que dice wa you cambia al fa sostenido y vuelve)

 fa x5 fa#x5
1|-1-|--3----| 
2|-1-|--3----|
3|-2-|--4----|
4|-3-|--5----|
5|-3-|--5----|
6|-1-|--3----|
		   
AcordesyTabs.com © 2008 Acordes y Tablaturas para guitarra. Tabs and Chords for guitar. Aviso Legal - Contacto
El uso de este sitio está sujeto a la aceptación de los términos y condiciones (19 usuarios online)