tablaturas, partituras y acordes para guitarra
Busca por banda/artista:
 
y/o título de la canción:
A B C D E F G H I J K L M N O P Q R S T U V W X Y Z 0 1 2 3 4 5 6 7 8 9 / Top 100 tabs
Categorías
Usuarios
usuario:
Darse de alta
password:
Artistas más visitados
Publicidad
TOP acordes y tablaturas de Juan Fernando Velasco


A tajitos de caña
de Juan Fernando Velasco
Puntúa este acorde/tab:      
(0.4/5)
Reportar este acorde/tab
  Añadir a tus favoritos
  Imprimir
Aqui esta una revisión muy completa de la canción. Ojalá la disfruten

ACORDES


    F#m7      A#º	Bm	  E/G#	     A	      C#7	C#7

 E|--2--|   |--X--|   |--2--|   |--0--|   |--0--|   |--X--|   |--4--|
 B|--5--|   |--5--|   |--3--|   |--0--|   |--2--|   |--2--|   |--6--|
 G|--2--|   |--6--|   |--4--|   |--1--|   |--2--|   |--4--|   |--4--|
 D|--4--|   |--5--|   |--4--|   |--2--|   |--2--|   |--3--|   |--6--|
 A|--4--|   |--X--|   |--2--|   |--2--|   |--0--|   |--4--|   |--4--|
 E|--2--|   |--6--|   |--2--|   |--4--|   |--0--|   |--X--|   |--4--|


   Bm/A	      A/G        D

 E|--2--|   |--0--|   |--2--|		A#º = Se lee LA# disminuido (a la septima del acorde
 B|--3--|   |--2--|   |--3--|		      se le disminuye medio tono).
 G|--4--|   |--2--|   |--2--|
 D|--4--|   |--2--|   |--0--|
 A|--0--|   |--0--|   |--0--|		C#7 = La primera forma del acorde es la usada para
 E|--X--|   |--3--|   |--X--|		      el arpegio. La otra es para los coros cuando tocas
					      rasgando las cuerdas.

ARPEGIO DE INICIO (las dos primeras estrofas)

    F#m7		F#m7		    F#m7		A#º
 E|-------------------|-------------------|-------------------|---------------------|
 B|------------5------|------------5------|------------5------|--------------5------|
 G|------2---2-----2--|------2---2-----2--|------2---2-----2--|------6-----6-----6--|
 D|----4---------4----|----4---------4----|----4---------4----|----5----------------|
 A|-------------------|-------------------|-------------------|---------------------|
 E|--2-----2-----2----|--2-----2-----2----|--2-----2-----2----|--6------6------6----|


    Bm			E/G#		    A			F#m7
 E|-------------------|------------0------|------------0------|---------------------|
 B|------------3------|------0---0-----0--|----------2--------|------------5--------|
 G|------4---4-----4--|----1---------1----|------2------------|------2---2-----2----|
 D|----4---------4----|-------------------|----2--------------|----4---------4------|
 A|--2-----2-----2----|-------------------|--0-----0-----0----|---------------------|
 E|-------------------|--4-----4-----4----|----------------4--|--2-----2-----2------|


    Bm			C#7		    F#m7		F#m7
 E|-------------------|-------------------|-------------------|---------|  Aqui tocas el mismo
 B|------------3------|------------2---2--|------------3------|---------|  arpegio desde A#º
 G|------4---4-----4--|------4---4--------|------4---4-----4--|------4--|  hasta este ultimo
 D|----4---------4----|----3---------4----|----4---------4----|----4----|  compas, para repetir
 A|--2-----2-----2----|--4-----4-----4----|-------------------|---------|  las dos primeras
 E|-------------------|-------------------|--2-----2-----2----|--2------|  frases


Aqui entra la segunda estrofa (tocas esto 2 veces pero la segunda omites un compas en A)

    E/B			E/B		    A			A
 E|------------0------|------------0------|------------0------|------------0------|
 B|------0---0-----0--|------0---0-----0--|----------2-----2--|----------2-----2--|
 G|----1---------1----|----1---------1----|------2-------2----|------2-------2----|
 D|-------------------|-------------------|----2--------------|----2--------------|
 A|--2-----2-----2----|--2-----2-----2----|--0-----0-----0----|--0-----0-----0----|
 E|-------------------|-------------------|-------------------|-------------------|


    C#7			C#7		    F#m7		F#m7
 E|-------------------|-------------------|-------------------|-------------------|
 B|------------2---2--|------------2---2--|------------3------|------------3------|
 G|------4---4--------|------4---4--------|------4---4-----4--|------4---4-----4--|
 D|----3---------4----|----3---------4----|----4---------4----|----4---------4----|
 A|--4-----4-----4----|--4-----4-----4----|-------------------|-------------------|
 E|-------------------|-------------------|--2-----2-----2----|--2-----2-----2----|


LETRA

Inicia con el arpegio de F#m7 (x3)

A#º		Bm	   E/G#     A
 Para tus ojos verdes amor, de caña verde
F#m7		Bm	   C#7	   	   F#m7
 Para tu piel dorada mi ser, de espigas sembradas (se repite)


F#m7	        E		    A
 Para ti mi canción bajará a la quebrada
A 		 C#7		  F#m7
 Ojalá llegue al río donde estás, amada
F#m7	       E			  A
 Y te diga al oído que el cañal me ha soplado
A			C#7
 Y que ha quebrado mis versos de amor
	       F#m7
 Para decirte mía


CORO
F#m7				 Bm	Bm/A
 A tajitos de caña llegaste a mi vida
E/G#	       E		 A	A/G
 A tajitos de miel endulzaste mi alma
F#m7				Bm
 Y a tajitos de amor te fui queriendo
D	       A
 Como la caña verde al sol
C#7		 F#m7
 Y el pan a la espiga
D	       A
 Como la caña verde al sol
C#7		 F#m7
 Y el pan a la espiga
						Aqui entran los violines y la guitarra
						permanece arpegiando el acorde F#m7

F#m7	        E		    A
 Para ti mi canción bajará a la quebrada
A 		 C#7		  F#m7
 Ojalá llegue al río donde estás, amada
F#m7	       E			  A
 Y te diga al oído que el cañal me ha soplado
A			C#7
 Y que ha quebrado mis versos de amor
	       F#m7
 Para decirte mía


CORO
F#m7				 Bm	Bm/A
 A tajitos de caña llegaste a mi vida
E/G#	       E		 A	A/G
 A tajitos de miel endulzaste mi alma
F#m7				Bm
 Y a tajitos de amor te fui queriendo
D	       A
 Como la caña verde al sol
C#7		 F#m7
 Y el pan a la espiga
D	       A
 Como la caña verde al sol
C#7		 F#m7
 Y el pan a la espiga

						Termina con los violines mientras la guirarra
						arpegia el acorde F#m7


Esta canción está dedicada a Cristina, la niña de los hermosos ojos verdes que sin saberlo
me enamoró  con ellos y con la sonrisa que siempre tiene para mi... ojala algun dia cuando vea
esto ya sepa que me gusta, que entienda y crea en lo que siento por ella y se lo pueda expresar...

Cristian M. Bogotá-Colombia
		   
AcordesyTabs.com © 2008 Acordes y Tablaturas para guitarra. Tabs and Chords for guitar. Aviso Legal - Contacto
El uso de este sitio está sujeto a la aceptación de los términos y condiciones (32 usuarios online)