tablaturas, partituras y acordes para guitarra
Busca por banda/artista:
 
y/o título de la canción:
A B C D E F G H I J K L M N O P Q R S T U V W X Y Z 0 1 2 3 4 5 6 7 8 9 / Top 100 tabs
Categorías
Usuarios
usuario:
Darse de alta
password:
Artistas más visitados
Publicidad
TOP acordes y tablaturas de Duncan Dhu


A tientas
de Duncan Dhu
Puntúa este acorde/tab:      
(0.8/5)
Reportar este acorde/tab
  Añadir a tus favoritos
  Imprimir
====================================================================================================================

Riff-1:

e----------------|
B--8h9-8-9-6~~~--|
G----------------|
D----------------|
A----------------|
E----------------|

====================================================================================================================

Intro: G# D# C#    C#-Cm-A#m-Cm-C#-D#-G   G#  D#  A#m C#  Fm  D# 



Verso 1:

G#
  Pienso en otoños que ya fueron,
D#                     
  pienso en inviernos que volvieron,
       A#m  C#
  sin ti...
          Fm  D#
  no es igual.



Verso 2:

G#
  Busqué en tus ojos mi destierro,
D#
  sigo tus pasos voy a tientas, 
 A#m  C#
  y...
           Fm  D#
  a dónde van?



Coro 1:

            G# Riff-1 Fm
  Quise llorar, 
       A#m      C#
  por ti y por mi,
          G# Riff-1 Fm  A#m  C#
  un día más.



Verso 3:

G#
  La luna esconde su mirada,
     D#
  y yo... yo quiero conquistarla,
      A#m  C#
  ya ves...
               Fm   D#
  todo sigue igual.



Verso 4:

G#
  Un llanto lento, un llanto amargo,
       D#
  un llanto al fin desesperado,
     A#m  C#
  y yo...
            Fm  D#
  no sé llorar.



Coro 2:

           G# Riff-1 Fm
  Quise soñar, 
       A#m       C#
  por ti y por mi,
          G# Riff-1 Fm  A#m  C#
  un día más.



Puente:
  
            Fm          D# D#sus4 D#
  Y no me asusta gritar,
                Fm          D# D#sus4 D# 
  tu nombre en la oscuridad,
C#                   
  en este exilio que...
A#                         D#
  me has obligado a compartir.



Solo:

 G#            D#                  A#m                C#                 Fm               D#

e---------------------------------------------------------------------------------------------------------------------|
B--------------------------------------9h11-9h11-9-6-9---9h11-9h11-9-6-9~~--------------------------------------------|
G--------6-8~~~---8h10-8h10-8-5-8~~~-----------------------------------------8h10-8h10-8~~----------------------------|
D----6-8------------------------------------------------------------------------------------8h10-8-6~~~---------------|
A--8------------------------------------------------------------------------------------------------------------------|
E---------------------------------------------------------------------------------------------------------------------|


 G#            D#                       A#m                     C#                    Fm              D#

e---------------------------------------------------------------------------------------------------------------------|
B-------------------------------9-11-11~~--11h13-11h13-11-9-11~~--11h13-11h13-11-6-9~~--------------------------------|
G--------6-8~~~--8h10-8h10-8-10----------------------------------------------------------8h10-8h10-8~~----------------|
D----6-8------------------------------------------------------------------------------------------------8h10-8-6~~~---|
A--8------------------------------------------------------------------------------------------------------------------|
E---------------------------------------------------------------------------------------------------------------------|



Verso 5:

G#
  Es como un filo de navaja,
D#
  este camino que ahora sigo,
    A#m  C#
  amor...
           Fm  D#
  no volveré...



Coro 1



Coro 2



Outro: [G# Riff-1 Fm A#m C#] X 4  G#


====================================================================================================================

Dudas y/o correcciones, enviarlas a mi E-mail, O.K.
		   
AcordesyTabs.com © 2008 Acordes y Tablaturas para guitarra. Tabs and Chords for guitar. Aviso Legal - Contacto
El uso de este sitio está sujeto a la aceptación de los términos y condiciones (19 usuarios online)