tablaturas, partituras y acordes para guitarra
Busca por banda/artista:
 
y/o título de la canción:
A B C D E F G H I J K L M N O P Q R S T U V W X Y Z 0 1 2 3 4 5 6 7 8 9 / Top 100 tabs
Categorías
Usuarios
usuario:
Darse de alta
password:
Artistas más visitados
Publicidad
TOP acordes y tablaturas de Angeles Negros


A tu recuerdo
de Angeles Negros
Puntúa este acorde/tab:      
(0.7/5)
Reportar este acorde/tab
  Añadir a tus favoritos
  Imprimir
Esta canción dedicada para mi niña linda:
Arlette té extraño un resto.....
esta es mi canción favorita de los Ángeles Negros espero y la disfruten

Intro:

Inicia con circulo de sol al segundo circulo comienza el requinto 


e|--------7--8--7---10--7-10-7-10-7-10--7-------------------|
B|-------8--8--8--------------------------10----------------|
G|---7------------------------------------------------------|
D|----------------------------------------------------------|   x2
A|----------------------------------------------------------|
E|----------------------------------------------------------|

y luego va

G      Em    
Tu recuerdo hoy
                 Am             D7 

e|---------------7-10--7-10-7-10-7-10--7----------------|
B|------------------------------------------------------|
G|------------------------------------------------------|
D|------------------------------------------------------|   
A|------------------------------------------------------|
E|------------------------------------------------------|

G     Em     
Ah venido a mí

 		   Am             D7 

e|--------------7-10--7-10-7-10-7-10--7----------------|
B|-----------------------------------------------------|
G|-----------------------------------------------------|
D|-----------------------------------------------------|   
A|-----------------------------------------------------|
E|-----------------------------------------------------|

  
    G     F#7     Bm     E7
     una gran emoción sentí,
   Am            Am-Bbm-Bm-Cm           D7
     ¿Por que fue,            sí todo paso?.


    G         Em    Am  D7
     Desde el día aquel
    G      Em     Am   D7
     nunca mas volvió,
    G      F#7       Bm         E7
     tu quizás no te acuerdes de mí,
          Am  D7             G   G7
     Pero hoy en mi mente estas.

    
    C      D  Bm  E7
     No te olvidare
            Am        D              G - G7
     aunque hoy enamorado de otra este
    C       D  Bm   E7
     y te llevare aquí,
   Am                Am-Bbm-Bm-Cm           D7
     En un rinconcito             de mi corazón.


    G      Em              Am  D7
     En mi vida siempre habrá,
    G     Em    Am     D7
     un minuto para ti,
    G        F#7 Bm         E7
     no te olvidare por que tu
         Am     D7       G  G7
     Mi gran recuerdo serás.


solo:

e|--------7--8--7---10--7-10-7-10-7-10--7-------------------|
B|-------8--8--8--------------------------10----------------|
G|---7------------------------------------------------------|
D|----------------------------------------------------------|   x2
A|----------------------------------------------------------|
E|----------------------------------------------------------|

e|-10-12-10-12-10----------------10-8-7--------|
B|----------------12-8-10-10--10--------10-8---|
G|---------------------------------------------|  x2
D|---------------------------------------------|
A|---------------------------------------------|
E|---------------------------------------------|

e|-10-7-9-6-7-9-10-12-10-12-------8-10-8--8-8-8-8-------------|
B|--------------------------10-12-----------------10-10-------|
G|------------------------------------------------------------|
D|------------------------------------------------------------|
A|------------------------------------------------------------|
E|------------------------------------------------------------|

    C         D  Bm  E7
     No te olvidare......etc.


Y termina:

e|--------7--8--7---10--7-10-7-10-7-10--7-------------------|
B|-------8--8--8--------------------------10----------------|
G|---7------------------------------------------------------|
D|----------------------------------------------------------|   x2
A|----------------------------------------------------------|
E|----------------------------------------------------------|

e|-------7--8--7--------------------------------------------|
B|-------8--8--8--------------------------------------------|
G|---7------------------------------------------------------|
D|----------------------------------------------------------|   
A|----------------------------------------------------------|
E|----------------------------------------------------------|

Si tienes alguna duda mándame un mail....... (Bbm = A#m)
		   
AcordesyTabs.com © 2008 Acordes y Tablaturas para guitarra. Tabs and Chords for guitar. Aviso Legal - Contacto
El uso de este sitio está sujeto a la aceptación de los términos y condiciones (24 usuarios online)