tablaturas, partituras y acordes para guitarra
Busca por banda/artista:
 
y/o título de la canción:
A B C D E F G H I J K L M N O P Q R S T U V W X Y Z 0 1 2 3 4 5 6 7 8 9 / Top 100 tabs
Categorías
Usuarios
usuario:
Darse de alta
password:
Artistas más visitados
Publicidad
TOP acordes y tablaturas de Campo de Almas


Adicción
de Campo de Almas
Puntúa este acorde/tab:      
(0.9/5)
Reportar este acorde/tab
  Añadir a tus favoritos
  Imprimir
La cancion esta en la nota C mayor, este es el bajo, esta mascadito: 

Siempre estuviste ahi esperando el momento en que te vaya a tomar
G ------------------------------------------------------------
D ------------------------------------------------------------
A ------------------3-3-3-3-3-----------2-3-5-5-5-5-----------
E ----------------------------5-5-5-5-5-------------3-3-3-3-3-

Y sabes que me gustaste me alucinaste y no te puedo dejar 
G ------------------------------------------------------------
D ------------------------------------------------------------
A -------3-3-3-3-3------------2-3-5-5-5-5---------------------
E ------------------5-5-5-5-5---------------3-3-3-3-3-3-------

Nunca en mi vida te olvidare no lo hare jamas
G ------------------------------------------------------------
D ------------------------------------------------------------
A ----------------------3-3-3-3-3-----------------------------
E -1-1-1-1----3-3-3-3-3---------------------1-1-1-1-1---------
  Te necesito mas
G -------------------------------------------------------------
D --------------------------------------------2-2-2-3-3-3-5-5-5
A --------------------------2-2-2-3-3-3-5-5-5------------------
E -------------3-3-3--5-5-5------------------------------------

Coro:
  Donde estes  donde estes     adonde vayas yo te buscare
G --------------------------------------------------------------
D --------------------------------------------------------------
A --------3-3-3-3-3-3-----------------------------------3-3-3-3-
E ---------------------1-1-1-1-1------3-3-3-3-3---------------3-3

  Donde estes  donde estes     adonde vayas yo te encontrare
G --------------------------------------------------------------
D --------------------------------------------------------------
A --------3-3-3-3-3-3-----------------------------------3-3-3-3-
E ---------------------1-1-1-1-1------3-3-3-3-3---------------3-3


G ----------------------------------------------------------------
D ----------------------------------------------------------------
A --3-3-3-3--5-----------3-3-3-3-5--------------------------------
E -------------3-3-3-3-5-----------3-3-3-3-5-5--------------------

Para mi es una alivio  saber que contigo siempre puedo contar
G ------------------------------------------------------------
D ------------------------------------------------------------
A -----3-3-3-3-3-----------2-3-5-5-5-5------------------------
E ---------------5-5-5-5-5-------------3-3-3-3-3--------------

Y es que tu me cambiaste me transformaste y no te puedo dejar 
G ------------------------------------------------------------
D ------------------------------------------------------------
A -------3-3-3-3-3------------2-3-5-5-5-5---------------------
E ------------------5-5-5-5-5---------------3-3-3-3-3-3-------

Nunca en mi vida te olvidare no lo hare jamas
G ------------------------------------------------------------
D ------------------------------------------------------------
A ----------------------3-3-3-3-3-----------------------------
E -1-1-1-1----3-3-3-3-3---------------------1-1-1-1-1---------
  Te necesito mas
G -------------------------------------------------------------
D --------------------------------------------2-2-2-3-3-3-5-5-5
A --------------------------2-2-2-3-3-3-5-5-5------------------
E -------------3-3-3--5-5-5------------------------------------


CORO: 2 VECES


Un saludo a toda la gentita de Ing. Electronica de la Upao Trujillo-PERU
		   
AcordesyTabs.com © 2008 Acordes y Tablaturas para guitarra. Tabs and Chords for guitar. Aviso Legal - Contacto
El uso de este sitio está sujeto a la aceptación de los términos y condiciones (40 usuarios online)