tablaturas, partituras y acordes para guitarra
Busca por banda/artista:
 
y/o título de la canción:
A B C D E F G H I J K L M N O P Q R S T U V W X Y Z 0 1 2 3 4 5 6 7 8 9 / Top 100 tabs
Categorías
Usuarios
usuario:
Darse de alta
password:
Artistas más visitados
Publicidad
TOP acordes y tablaturas de Sober


Adiós
de Sober
Puntúa este acorde/tab:      
(0.7/5)
Reportar este acorde/tab
  Añadir a tus favoritos
  Imprimir
NOTACION

s= slide
*= tocar varias veces esa nota o acorde

------------------------------------------------------------
------------------------------------------------------------

AFINACION

Dropped D: afina la sexta cuerda de tu guitarra dos semito-
nos menos (de E a D) y las cinco cuerdas restantes déjalas 
en afinación standar

------------------------------------------------------------
------------------------------------------------------------


-----
INTRO
-----


1)


--------------------------
--------------------------
--------------------------
-----4--------4-----4--4--
--------2--------2--------
--2--------2-----------2--


--------------------------
--------------------------
--------------0-----------
-----4-----------4-----4--
--------0-----------0-----
--0--------0-----------0--


--------------------------
--------------------------
--------------0-----------  (x2)
-----5-----------5-----5--
--------3-----------3-----
--3--------3-----------3--


2)


--------------------------
--------------------------
--------------0-----------
-----4-----------4-----4--
--------2-----------2-----
--2--------2-----------2--


--------------------------
--------------------------
--------------0-----------
-----4-----------4-----4--
--------0-----------0-----
--0--------0-----------0--


--------------------------
--------------------------
--------------0-----------  (x2)
-----5-----------5-----5--
--------3-----------3-----
--3--------3-----------3--



-----
VERSO (La última gota hoy colmo...)
-----


Tocar lo mismo que en Intro 2)


Al final, antes de entrar al Chorus, toca esto:


(... que me separa de tí)
--------------------------
--------------------------
--------------------------  (x2)
-----5--------5--------5--
--------3--------3--------
--3--------3--------3-----



------
CHORUS (Reviento en trozos al saber...)
------


--0-------0-------1-1--0-1--0-0-1--0-0-0--
--3--/s/--5--/s/--1-1--0-1--0-0-1--0-1-3--
--4--/s/--6--/s/--2-2--2-2--2-2-2--2-2-2--
--5--/s/--7--/s/--3-3--3-3--3-3-3--3-3-3--
--0*------0*------0-0--0-0--0-0-0--0-0-0--
------------------------------------------


------------------------------------------------------------
------------------------------------------------------------
		   
AcordesyTabs.com © 2008 Acordes y Tablaturas para guitarra. Tabs and Chords for guitar. Aviso Legal - Contacto
El uso de este sitio está sujeto a la aceptación de los términos y condiciones (20 usuarios online)