tablaturas, partituras y acordes para guitarra
Busca por banda/artista:
 
y/o título de la canción:
A B C D E F G H I J K L M N O P Q R S T U V W X Y Z 0 1 2 3 4 5 6 7 8 9 / Top 100 tabs
Categorías
Usuarios
usuario:
Darse de alta
password:
Artistas más visitados
Publicidad
TOP acordes y tablaturas de Blink 182


Mutt
de Blink 182
Puntúa este acorde/tab:      
(0.6/5)
Reportar este acorde/tab
  Añadir a tus favoritos
  Imprimir


Intro
e--------------------------------
---------------------------------
---------------------------------
-------2-------------------------
--0-0-------x6--------0----------
E----------------0-0------x6-----

Versee--------------------------------------------------------------------------

e-------------------------------------------------------------
--------------------------------------------------------------
--------2-------------2/4------------6-------------4----------Repeat line
---0-0-----(x2)--0-0------(x2)--4-4-----(x2)--2-2-----(x2)----
--------------------------------------------------------------
E-------------------------------------------------------------

e-------------------------------------------------
--------------------------------------------------
----------------------------------------7--6------
-----7-7-7-7-7-7-7-7-------------7---9--7--6------Back to Verse
-------MuteLine--5-4-----(x4)----5---9--5--4--(x4)
E----5-5-5-5-7-7-----------------5---7------------

Dis is ma 1st tab. Hope its right. E-mail me at dominicbeckford@hotmail.com espe
 And  SAVE CHIP!!!!!!!
		   
AcordesyTabs.com © 2008 Acordes y Tablaturas para guitarra. Tabs and Chords for guitar. Aviso Legal - Contacto
El uso de este sitio está sujeto a la aceptación de los términos y condiciones (26 usuarios online)