tablaturas, partituras y acordes para guitarra
Busca por banda/artista:
 
y/o título de la canción:
A B C D E F G H I J K L M N O P Q R S T U V W X Y Z 0 1 2 3 4 5 6 7 8 9 / Top 100 tabs
Categorías
Usuarios
usuario:
Darse de alta
password:
Artistas más visitados
Publicidad
TOP acordes y tablaturas de León Gieco


Estás en: Inicio > Letra L > Acordes y tablaturas de León Gieco > Adios hombre viejo
Adios hombre viejo
de León Gieco
Puntúa este acorde/tab:      
(0.4/5)
Reportar este acorde/tab
  Añadir a tus favoritos
  Imprimir
Intro x2

e|-----------------------------------------------------------------3---------------3-------|
B|-----1-----1---------1-----1-----------1-----1-----1---------0-----0---0-----0-----0---0-|
G|---2-----0-----0---0-----0-----------0-----0-----0-----0---0---0-----0-----0---0-----0---|
D|-3-----2-----0---------------------0-----------------------------------------------------|
A|-----------------3-----2-----0/2/3-------3-----2-----0-----------------------------------|
E|---------------------------------------------------------3---------------3---------------|

Letra: Parte A
e|-----------------------------------------------------------|
B|----1-----1---------1-----1---------1-----1--------1-----1-|
G|--2-----0-----0---0-----0-----0---0-----0----0---0-----0---|
D|3-----2-----0---2-----0---------0--------------------------|
A|----------------------------3---------3----2---3-----2-----|
E|-----------------------------------------------------------|

e|-----------3---------------3-------|
B|-------0-----0---0-----0-----0---0-|
G|-----0---0-----0-----0---0-----0---|
D|---------------------------------0-|
A|-0---------------------------------|
E|---3---------------3---------------|

Adiós hombre viejo de la mente blanca.
Lugares profundos te andan reclamando.
Desde zonas virgenes de la tierra adentro.

Parte B
e|-------0------0-|  e|---------0--------------3-------|
B|-----1------1---|  B|-----1-----1---1----0-----0---0-|
G|---2------2-----|  G|---2---2-----2----0---0-----0---| X4
D|----------------|  A|--------------------------------|
A|-3------2-------|  D|-0------------------------------|
E|----------------|  E|----------------3---------------|

No sientas miedo, no sientas frio,
mira que morir es tan natural, 

Parte A x1
como nacer, como nacer, como nacer.

Interludio 

e|---------0-------------0-------1--------3-------0-------2---------3-------|
B|-1-0-1-3---1---1-----1-------1--------3-------1-------1-------0-----0---0-|
G|-------------0-----0-------2-------4--------2-------2-------0---0-----0---| X2
D|--------------------------------------------------0-----------------------|
A|------------------------------------------0-------------------------------|
E|-----------------3-------1-------3------------------------3---------------|

e|---------0-------|
B|-----1-----1---1-|
G|---0---0-----0---| X2 Y luego Intro.
D|-----------------|
A|-3---------------|
E|-----------------|

Adiós hombre viejo de la mente blanca.
Quizas algún día bajo el puente roto,
de tus pies raices florezcan verdes venas.

No sientas miedo, no sientas frio,
mira que morir es tan natural, 
como nacer, como nacer, como nacer.

La otra manera de tocarlo es:
Parte A
4/4 | Fmaj 7  C/E  C/D | C/E  C/D  C | C/D  C  C/B | C  C/B  A7 | G      | G       |
    |  '       '   '   |  '    '   ' |  '   '   '  | '   '   '  | '      | '       |
    |  '       '   '   |  '    '   ' |  '   '   '  | '   '   '  | '      | C       |

Parte B
4/4 | Am | G | Am | G | Am | G | Am  | G |
    | Fmaj 7  C/E  C/D | C/E  C/D  C | C/D  C  C/B | C  C/B  A7 | G      | C       | C      |

Interludio
4/4 | C  | C F | G Am | D7 G |
    | C  | C F | G Am | D7 G | C |
		   
AcordesyTabs.com © 2008 Acordes y Tablaturas para guitarra. Tabs and Chords for guitar. Aviso Legal - Contacto
El uso de este sitio está sujeto a la aceptación de los términos y condiciones (24 usuarios online)