tablaturas, partituras y acordes para guitarra
Busca por banda/artista:
 
y/o título de la canción:
A B C D E F G H I J K L M N O P Q R S T U V W X Y Z 0 1 2 3 4 5 6 7 8 9 / Top 100 tabs
Categorías
Usuarios
usuario:
Darse de alta
password:
Artistas más visitados
Publicidad
TOP acordes y tablaturas de el Tri


A.D.O.
de el Tri
Puntúa este acorde/tab:      
(0.4/5)
Reportar este acorde/tab
  Añadir a tus favoritos
  Imprimir
Esto se toca durante toda la cancion a esepcion de cuando dice:

yo la trate como una reina...... esa parte se toca con acordes
esta tablatura esta en escala de A


e----------------------------------------------
B----------------------------------------------
G---2-2----2-2----2-2----2-2-------------------
D---2-2-4--2-2-4--2-2-4--2-2-4-4-5-5-6-6-7-7---
A----------------------------------------------
E----------------------------------------------

e---------------------------------
B---3-3----3-3----3-3-----3-3-----
G---2-2-4--2-2-4--2-2-4---2-2-4---
D---------------------------------
A---------------------------------
E---------------------------------

e--------------------------------
B--------------------------------
G--------------------------------
D---2-2----2-2----2-2----2-2-----
A---2-2-4--2-2-4--2-2-4--2-2-4---
E--------------------------------
		   
AcordesyTabs.com © 2008 Acordes y Tablaturas para guitarra. Tabs and Chords for guitar. Aviso Legal - Contacto
El uso de este sitio está sujeto a la aceptación de los términos y condiciones (24 usuarios online)