tablaturas, partituras y acordes para guitarra
Busca por banda/artista:
 
y/o título de la canción:
A B C D E F G H I J K L M N O P Q R S T U V W X Y Z 0 1 2 3 4 5 6 7 8 9 / Top 100 tabs
Categorías
Usuarios
usuario:
Darse de alta
password:
Artistas más visitados
Publicidad
TOP acordes y tablaturas de el Tri


A.D.O.
de el Tri
Puntúa este acorde/tab:      
(0.5/5)
Reportar este acorde/tab
  Añadir a tus favoritos
  Imprimir
Esta cansión ya es un poco vieja pero la versióbn exixtente en el atame 
le falta algo por eso les mando esta transcripipción que para mi es mejor.

e|--------------------------|--------------------------|
B|--------------------------|--------------------------|
G|--------------------------|--------------------------|
D|--------------------------|--------------------------|
A|--1--1--2--1--3--1--2--1--|--1--1--2--1--3--1--2--1--|
E|--0--0--0--0--0--0--0--0--|--0--0--0--0--0--0--0--0--|

e|-----------------------------------------------------|
B|-----------------------------------------------------|
G|-----------------------------------------------------|
D|--1--1--2--1--3--1--2--1--|--1--1--2--1--3--1--2--1--|
A|--0--0--0--0--0--0--0--0--|--0--0--0--0--0--0--0--0--|
E|-----------------------------------------------------|

e|--------------------------|--------------------------|
B|--------------------------|--------------------------|
G|--------------------------|--------------------------|
D|--------------------------|--------------------------|
A|--1--1--2--1--3--1--2--1--|--1--1--2--1--3--1--2--1--|
E|--0--0--0--0--0--0--0--0--|--0--0--0--0--0--0--0--0--|
                  A
e|--------------0--0--|  Despues tocas F y lo bajas 
B|--------------0--0--|  hasta el séptimo traste   
G|--------------2--2--|  dandole dos veces a las 
D|--4--4--3--3--2--2--|  cuerdas por cada traste que 
A|--2--2--1--1--2--2--|  pasas y después le das una vez
E|--------------0--0--|  mas al traste 6 y 7
		   
AcordesyTabs.com © 2008 Acordes y Tablaturas para guitarra. Tabs and Chords for guitar. Aviso Legal - Contacto
El uso de este sitio está sujeto a la aceptación de los términos y condiciones (36 usuarios online)