tablaturas, partituras y acordes para guitarra
Busca por banda/artista:
 
y/o título de la canción:
A B C D E F G H I J K L M N O P Q R S T U V W X Y Z 0 1 2 3 4 5 6 7 8 9 / Top 100 tabs
Categorías
Usuarios
usuario:
Darse de alta
password:
Artistas más visitados
Publicidad
TOP acordes y tablaturas de Slayer


Estás en: Inicio > Letra S > Acordes y tablaturas de Slayer > Angel of death
Angel of death
de Slayer
Puntúa este acorde/tab:      
(0.2/5)
Reportar este acorde/tab
  Añadir a tus favoritos
  Imprimir

                         Angel of Death - Slayer
                         =======================

Tune down 1/2 step (Eb,Ab,Db,Gb)

 210 bpm
|-----------------|-----------------|-----------------|-----------------|
|-----------------|-----------------|-----------------|-----------------|
|-----------------|-----------------|-----------------|-----------------|
|-0---------------|-----------------|-----------------|-----------------|

|-----------------|-----------------|-----------------|-----------------|
|-----------------|-----------------|-----------------|-----------------|
|-----------------|-----------------|-----------------|-----------------|
|-0-------------1-|-1-------------2-|-2---------------|-1-0-1-5-----4---|

|-----------------|-----------------|-----------------|-----------------|
|-----------------|-----------------|-----------------|-----------------|
|-----------------|-----------------|-----------------|-----------------|
|-0-------------1-|-1-------------2-|-2---------------|-1-0-1-5-----4---|

|-----------------|-----------------|-----------------|-----------------||
|-----------------|-----------------|-----------------|-----------------||
|-----------------|-----------------|-----------------|-----------------||
|-0-------------1-|-1-------------2-|-2---------------|-1-0-1-5-----4---||

|-----------------|-----------------|-----------------|-----------------|
|-----------------|-----------------|-----------------|-----------------|
|-----------------|-----------------|-----------------|-----------------|
|-0-00000000000-1-|-1-00000000000-2-|-2-00000000000000|-1-0-1-5-----4---|

|-----------------|-----------------|-----------------|-----------------|
|-----------------|-----------------|-----------------|-----------------|
|-----------------|-----------------|-----------------|-----------------|
|-0-00000000000-1-|-1-00000000000-2-|-2-00000000000000|-1-0-1-5-----4---|

|-----------------||
|-----------------||
|-----------------||
|-1---------------||

|-----------------|-----------------|-----------------|-----------------|
|-----------------|-----------------|-----------------|-----------------|
|---------1-------|-----------------|---------1-------|-----------------|
|-0-00000---00000-|-0-00000-1-4-1---|-0-00000---00000-|-0-00000-1---4---|

|-----------------|-----------------|-----------------|-----------------||
|-----------------|-----------------|-----------------|-----------------||
|---------1-------|-----------------|---------1-------|-----------------||
|-0-00000---00000-|-0-00000-1-4-1---|-0-00000---00000-|-0-00000-5---6---||

 verse 1
|-----------------|-----------------|-----------------|-----------------|
|-----------------|-----------------|-----------------|-----------------|
|---------1-------|-----------------|---------1-------|-----------------|
|-0-00000---00000-|-0-00000-1-4-1---|-0-00000---00000-|-0-00000-1---4---|

|-----------------|-----------------|-----------------|-----------------||
|-----------------|-----------------|-----------------|-----------------||
|---------1-------|-----------------|---------1-------|-----------------||
|-0-00000---00000-|-0-00000-1-4-1---|-0-00000---00000-|-0-00000-5---6---||

|-----------------|-----------------|-----------------|-----------------|
|-----------------|-----------------|-----------------|-----------------|
|-----------------|-----------------|-----------------|-----------------|
|-1-1111112-111111|-3-1111114-1-2---|-1-1111112-111111|-3-1111114-1-2---|

|-----------------|-----------------|-----------------|-----------------||
|-----------------|-----------------|-----------------|-----------------||
|-----------------|-----------------|-----------------|-----------------||
|-1-1111112-111111|-3-1111114-1-2---|-1-1111112-111111|-3-1111114-1-2---||

 chorus
|-----------------|-----------------|-----------------|-----------------|
|-----------------|-----------------|-----------------|-----------------|
|-----------------|-----------------|-----------------|-----------------|
|-0-00000000000-1-|-1-00000000000-2-|-2-00000000000000|-1-0-1-5-----4---|

|-----------------|-----------------|-----------------|-----------------||
|-----------------|-----------------|-----------------|-----------------||
|-----------------|-----------------|-----------------|-----------------||
|-0-00000000000-1-|-1-00000000000-2-|-2-00000000000000|-1-0-1-5-----4---||

 verse 2
|-----------------|-----------------|-----------------|-----------------|
|-----------------|-----------------|-----------------|-----------------|
|---------1-------|-----------------|---------1-------|-----------------|
|-0-00000---00000-|-0-00000-1-4-1---|-0-00000---00000-|-0-00000-1---4---|

|-----------------|-----------------|-----------------|-----------------||
|-----------------|-----------------|-----------------|-----------------||
|---------1-------|-----------------|---------1-------|-----------------||
|-0-00000---00000-|-0-00000-1-4-1---|-0-00000---00000-|-0-00000-5---6---||

 chorus
|-----------------|-----------------|-----------------|-----------------|
|-----------------|-----------------|-----------------|-----------------|
|-----------------|-----------------|-----------------|-----------------|
|-0-00000000000-1-|-1-00000000000-2-|-2-00000000000000|-1-0-1-5-----4---|

|-----------------|-----------------|-----------------|-----------------|
|-----------------|-----------------|-----------------|-----------------|
|-----------------|-----------------|-----------------|-----------------|
|-0-00000000000-1-|-1-00000000000-2-|-2-00000000000000|-1-0-1-5-----4---|

|-----------------|-----------------|-----------------|-----------------|
|-----------------|-----------------|-----------------|-----------------|
|-----------------|-----------------|-----------------|-----------------|
|-0-00000000000-1-|-1-00000000000-2-|-2-00000000000000|-1-0-1-5-----4---|

 2/4
|---------||
|---------||
|---------||
|-1-------||

 184 bpm
 4/4
|-----------------|-----------------|-----------------|-----------------|
|-----------------|-----------------|-----------------|-----------------|
|-----------------|-----------------|-----------------|-----------------|
|-0---------------|-----------------|-----------------|-----------------|

|-----------------|-----------------|-----------------|-----------------||
|-----------------|-----------------|-----------------|-----------------||
|-----------------|-----------------|-----------------|-----------------||
|-----------------|-----------------|-----------------|-----------------||

|-----------------|-----------------|-----------------|-----------------|
|--hp-------------|--hp----hp----hp-|--hp-------------|-----------------|
|-787-------------|-676---565---454-|-787-------------|-----------------|
|-----0-0-0-0-0-0-|-----0-----0-----|-----0-0-0-0-0-0-|-0-0-0-0-0-0-0-0-|

|-----------------|-----------------|-----------------|-----------------|
|--hp-------------|--hp----hp----hp-|--hp-------------|-----------------|
|-787-------------|-676---565---454-|-787-------------|-----------------|
|-----0-0-0-0-0-0-|-----0-----0-----|-----0-0-0-0-0-0-|-0-0-0-0-0-0-0-0-|

|-----------------|-----------------|-----------------|-----------------|
|--hp-------------|--hp----hp----hp-|--hp-------------|-----------------|
|-787-------------|-676---565---454-|-787-------------|-----------------|
|-----0-0-0-0-0-0-|-----0-----0-----|-----0-0-0-0-0-0-|-0-0-0-0-0-0-0-0-|

|-----------------|-----------------||
|--hp-------------|--hp----hp----hp-||
|-787-------------|-676---565---454-||
|-----0-0-0-0-0-0-|-----0-----0-----||

 verse 3
|-----------------|-----------------|-----------------|-----------------|
|-----------------|-----------------|-----------------|-----------------|
|-----------------|-----------------|-----------------|-----------------|
|-0-0-0-1-0-0-0-0-|-0-0-1-0-0-5-6---|-0-0-0-1-0-0-0-0-|-0-0-0-0-0-0-0-0-|

|-----------------|-----------------|-----------------|-----------------|
|-----------------|-----------------|-----------------|-----------------|
|-----------------|-----------------|-----------------|-----------------|
|-0-0-0-1-0-0-0-0-|-0-0-1-0-0-5-6---|-0-0-0-1-0-0-0-0-|-0-0-0-0-0-0-0-0-|

|-----------------|-----------------|-----------------|-----------------|
|-----------------|-----------------|-----------------|-----------------|
|-----------------|-----------------|-----------------|-----------------|
|-0-0-0-1-0-0-0-0-|-0-0-1-0-0-5-6---|-0-0-0-1-0-0-0-0-|-0-0-0-0-0-0-0-0-|

|-----------------|-----------------|-----------------|-----------------|
|-----------------|-----------------|-----------------|-6-------3---4---|
|-----------------|-----------------|-----------------|---7-5-----4---5-|
|-0-0-0-1-0-0-0-0-|-0-0-1-0-0-5-6---|-0-0-0-1-0-0-0-0-|-------6---------|

|-----------------|-----------------|-----------------|-----------------|
|-----------------|-----------------|-----------------|-6-------3---4---|
|-----------------|-----------------|-----------------|---7-5-----4---5-|
|-1-1-1-1-1-1-1-1-|-4-------3-----3-|-0-0-0-1-0-0-0-0-|-------6---------|

|-----------------|-----------------||
|-----------------|-----------------||
|-----------------|-----------------||
|-1-1-1-1-1-------|-4-------3-------||

|-----------------|-----------------|-----------------|-----------------|
|-----------------|-----------------|-----------------|-----------------|
|-----------------|-----------------|-----------------|-----------------|
|-0-0-0-1-0-0-0-0-|-0-0-1-0-0-5-6---|-0-0-0-1-0-0-0-0-|-0-0-0-0-0-0-0-0-|

|-----------------|-----------------|-----------------|-----------------||
|-----------------|-----------------|-----------------|-----------------||
|-----------------|-----------------|-----------------|-----------------||
|-0-0-0-1-0-0-0-0-|-0-0-1-0-0-5-6---|-0-0-0-1-0-0-0-0-|-0-0-0-0-0-0-0-0-||

 verse 4
|-----------------|-----------------|-----------------|-----------------|
|-----------------|-----------------|-----------------|-----------------|
|-----------------|-----------------|-----------------|-----------------|
|-0-0-0-1-0-0-0-0-|-0-0-1-0-0-5-6---|-0-0-0-1-0-0-0-0-|-0-0-0-0-0-0-0-0-|

|-----------------|-----------------|-----------------|-----------------|
|-----------------|-----------------|-----------------|-----------------|
|-----------------|-----------------|-----------------|-----------------|
|-0-0-0-1-0-0-0-0-|-0-0-1-0-0-5-6---|-0-0-0-1-0-0-0-0-|-0-0-0-0-0-0-0-0-|

|-----------------|-----------------|-----------------|-----------------|
|-----------------|-----------------|-----------------|-----------------|
|-----------------|-----------------|-----------------|-----------------|
|-0-0-0-1-0-0-0-0-|-0-0-1-0-0-5-6---|-0-0-0-1-0-0-0-0-|-0-0-0-0-0-0-0-0-|

|-----------------|-----------------|-----------------|-----------------|
|-----------------|-----------------|-----------------|-6-------3---4---|
|-----------------|-----------------|-----------------|---7-5-----4---5-|
|-0-0-0-1-0-0-0-0-|-0-0-1-0-0-5-6---|-0-0-0-1-0-0-0-0-|-------6---------|

|-----------------|-----------------|-----------------|-----------------|
|-----------------|-----------------|-----------------|-6-------3---4---|
|-----------------|-----------------|-----------------|---7-5-----4---5-|
|-1-1-1-1-1-------|-4-------3-------|-0-0-0-1-0-0-0-0-|-------6---------|

|-----------------|-----------------||
|-----------------|-----------------||
|-----------------|-----------------||
|-1-1-1-1-1-------|-4-------3-------||

|-----------------|-----------------|-----------------|-----------------|
|--hp-------------|--hp----hp----hp-|--hp-------------|-----------------|
|-787-------------|-676---565---454-|-787-------------|-----------------|
|-----0-0-0-0-0-0-|-----0-----0-----|-----0-0-0-0-0-0-|-0-0-0-0-0-0-0-0-|

|-----------------|-----------------|-----------------|-----------------|
|--hp-------------|--hp----hp----hp-|--hp-------------|-----------------|
|-787-------------|-676---565---454-|-787-------------|-----------------|
|-----0-0-0-0-0-0-|-----0-----0-----|-----0-0-0-0-0-0-|-0-0-0-0-0-0-0-0-|

|-----------------|-----------------|-----------------|-----------------|
|--hp-------------|--hp----hp----hp-|--hp-------------|-----------------|
|-787-------------|-676---565---454-|-787-------------|-----------------|
|-----0-0-0-0-0-0-|-----0-----0-----|-----0-0-0-0-0-0-|-0-0-0-0-0-0-0-0-|

|-----------------|-----------------|-----------------||
|--hp-------------|--hp----hp----hp-|-----------------||
|-787-------------|-676---565---454-|-8---------------||
|-----0-0-0-0-0-0-|-----0-----0-----|-----------------||

 guitar solo
 232 bpm
|-----------------|-----------------|-----------------|-----------------|
|-----------------|-----------------|-----------------|-----------------|
|-----------------|-----------------|-----------------|-----------------|
|-0-00000000000-6-|-6-00000000000-2-|-2-00000000000-6-|-6-0000002-0-3---|

|-----------------|-----------------|-----------------|-----------------|
|-----------------|-----------------|-----------------|-----------------|
|-----------------|-----------------|-----------------|-----------------|
|-0-00000000000-6-|-6-00000000000-2-|-2-00000000000-6-|-6-0000002-0-3---|

|-----------------|-----------------|-----------------|-----------------|
|-----------------|-----------------|-----------------|-----------------|
|-----------------|-----------------|-----------------|-----------------|
|-0-00000000000-6-|-6-00000000000-2-|-2-00000000000-6-|-6-0000002-0-3---|

|-----------------|-----------------|-----------------|-----------------||
|-----------------|-----------------|-----------------|-----------------||
|-----------------|-----------------|-----------------|-----------------||
|-0-00000000000-6-|-6-00000000000-2-|-2-00000000000-6-|-6-0000002-0-3---||

|-----------------|-----------------|-----------------|-----------------|
|-----------------|-----------------|-----------------|-----------------|
|-----------------|-----------------|-----------------|-----------------|
|-1-1111112-111111|-3-1111114-1-2---|-1-1111112-111111|-3-1111114-1-2---|

|-----------------|-----------------|-----------------|-----------------||
|-----------------|-----------------|-----------------|-----------------||
|-----------------|-----------------|-----------------|-----------------||
|-1-1111112-111111|-3-1111114-1-2---|-1-1111112-111111|-3-1111114-1-2---||

|-----------------|-----------------|-----------------|-----------------|
|-----------------|-----------------|-----------------|-----------------|
|-----------------|-------------5---|-----------------|-------------5---|
|-4-4444445-444444|-6-4444447-4-----|-4-4444445-444444|-6-4444447-4-----|

|-----------------|-----------------|-----------------|-----------------||
|-----------------|-----------------|-----------------|-----------------||
|-----------------|-------------5---|-----------------|-------------5---||
|-4-4444445-444444|-6-4444447-4-----|-4-4444445-444444|-6-4444447-4-----||

|-----------------|-----------------|-----------------|-----------------||
|-----------------|-----------------|-----------------|-----------------||
|-----------------|-----------------|-----------------|-----------------||
|-1-1111112-111111|-3-1111114-1-2---|-1-1111112-111111|-3-1111114-1-2---||

|-----------------|-----------------|-----------------|-----------------||
|-----------------|-----------------|-----------------|-----------------||
|-----------------|-------------5---|-----------------|-------------5---||
|-4-4444445-444444|-6-4444447-4-----|-4-4444445-444444|-6-4444447-4-----||

|-----------------|-----------------|-----------------|-----------------|
|-----------------|-----------------|-----------------|-----------------|
|-----------------|-----------------|-----------------|-----------------|
|-1-1111112-111111|-3-1111114-1-2---|-1-1111112-111111|-3-1111114-1-2---|

|-----------------|-----------------|-----------------|-----------------|
|-----------------|-----------------|-----------------|-----------------|
|-----------------|-----------------|-----------------|-----------------|
|-1-1111112-111111|-3-1111114-1-2---|-1-1111112-111111|-0---------------|

|-----------------|-----------------||
|-----------------|-----------------||
|-----------------|-----------------||
|-----------------|-----------------||

 tempo I
|-----------------|-----------------|-----------------|-----------------|
|-----------------|-----------------|-----------------|-----------------|
|-----------------|-----------------|-----------------|-----------------|
|-0-00000000000-1-|-1-00000000000-2-|-2-00000000000000|-1-0-1-5-----4---|

|-----------------|-----------------|-----------------|-----------------|
|-----------------|-----------------|-----------------|-----------------|
|-----------------|-----------------|-----------------|-----------------|
|-0-00000000000-1-|-1-00000000000-2-|-2-00000000000000|-1-0-1-5-----4---|

|-----------------|-----------------|-----------------|-----------------|
|-----------------|-----------------|-----------------|-----------------|
|-----------------|-----------------|-----------------|-----------------|
|-0-00000000000-1-|-1-00000000000-2-|-2-00000000000000|-1-0-1-5-----4---|

|-----------------|-----------------|-----------------|-----------------|
|-----------------|-----------------|-----------------|-----------------|
|-----------------|-----------------|-----------------|-----------------|
|-0-00000000000-1-|-1-00000000000-2-|-2-00000000000000|-1-0-1-5-----4---|

|-----------------|-----------------||
|-----------------|-----------------||
|---------------7-|-7---------------||
|-1---------------|-----------------||




		   
AcordesyTabs.com © 2008 Acordes y Tablaturas para guitarra. Tabs and Chords for guitar. Aviso Legal - Contacto
El uso de este sitio está sujeto a la aceptación de los términos y condiciones (15 usuarios online)