tablaturas, partituras y acordes para guitarra
Busca por banda/artista:
 
y/o título de la canción:
A B C D E F G H I J K L M N O P Q R S T U V W X Y Z 0 1 2 3 4 5 6 7 8 9 / Top 100 tabs
Categorías
Usuarios
usuario:
Darse de alta
password:
Artistas más visitados
Publicidad
TOP acordes y tablaturas de Que payasos


Alicia
de Que payasos
Puntúa este acorde/tab:      
(0.3/5)
Reportar este acorde/tab
  Añadir a tus favoritos
  Imprimir
Esta tab va por Saul y los Que payasos, esta completa y
en el tono que escuche en el disco ya que hay una transcripcion 
que esta en otro tono y otra tiene mal un acorde espero les guste, 
cualquier duda o comentario comunicarse por favor.
pronto mando los solos del teclado y recuerden....  

....'Viva Mexico Cabrones'

- = rasgueo hacia abajo
+ = rasgueo hacia arriba    

primero se escucha el Intro del teclado solo y luego con estos acordes  
 
           Em                            D                     
E1|--------0-0-0-7-0-0-5-0-0-0-5-0-0-3---0-0-0-7-0-0-5-0-0-3h5-3---|
B2|----------------------------------------------------------------|
           
           C                                   Em
E1|--------0-0-0-7-0-0-5-0-0-0-5-0-0-3---0-0-0-7-0-0-5-0-0-3h5-3---|
B2|----------------------------------------------------------------|

Em                D
Alicia llego a su cuarto, (apago laluz),

C             
se fue por el espejo, se esfumó. 

Am                             Bb
Alicia tiró la llave por la ventana
   
     Em
E1|--------------|-------------|------------------|
B2|--------------|-------------|------------------|
G3|--------------|-------------|------------------|
D4|--------------|-------------|------------------|
A5|------2---0---|-----2---0---|------2---0-------|
E6|--0-0---0---0-|-0-0---0---0-|-0--0---0---0---0-|

Em                   D 
Alicia no está en su cuarto, (desapareció),

C
la vimos desde aqui se fue feliz,

Am                              Bb
Alicia viajo al pais de las maravillas
       
  (R1) Am                           Em 
       - +    - +    - +    - +     - +    - +    - +    - +                   
 1|----5-5----5-5----5-5----5-5--|--7-7----7-7----7-7----7-7---|
 2|----5-5----5-5----5-5----5-5--|--8-8----8-8----8-8----8-8---|
 3|----5-5----5-5----5-5----5-5--|--9-9----9-9----9-9----9-9---|
 4|----7-7----7-7----7-7----7-7--|--9-9----9-9----9-9----9-9---|
 5|----7------7------7------7----|--7------7------7------7-----|
 6|----5------5------5------5----|-----------------------------|

   (R1) Am                                
a su vestido le cambio el color 

           Em
se fue agrandando,

                    (R1) Am    
se convirtio en un paracaidas.

                     Em 
Bajo al pais de las maravillas; 


Alicia sola, 

                 (R1)Am 
en un lugar de fantasias

Em                         Am        (R2)Em                         
sola.. en un lugar de fantasias, (ah ah Alicia).
                    
 (R2)Em
     - + - + - -       
1|---7-7-7-7-7-7---|
2|---8-8-8-8-8-8---|
3|---9-9-9-9-9-9---|
4|---9-9-9-9-9-9---|
5|---7---7---------|
6|-----------------|

1|-------------------------------------------------|
2|-------------------------------------------------|
3|-------------------------------------------------|
4|-------------------------------------------------|
5|---------0--0-0--2---2----------0--0-0--2---2----|
6|-0-2-3-4-----------0----0-2-3-4-----------0----3-|


Em              D
Alicia color de rosa, (se desvaneció):

C
el tiempo la envolvio y no existió.

Am                                Bb
Alicia es un carrusel que no para nunca

 (R3)Am  
1|-------------------------------|
2|-------------------------------|
3|----------5--------5-5---------|
4|----5-6-7---7--5-7-----7-------|
5|-------------------------------|
6|-------------------------------|

Am     (R3) 
entre sonrisa se vistio de estrellas,

          Em
subio tan alto que en su cuerpo 

                     Am 
los espacios se multiplican,
                     
                                         Em 
cada uno es una puerta que está siempre abierta,

                                      Am     
cada puerta es un espejo que refleja (Alicias).

Em              
oh  oh oh oh  oh

  Am 
Alicias 

Em
oh  oh oh oh


(teclado solo 1) Am (R3) Em Am (R3) Em


Em (R1)        Am
que refleja Alicias

Em            Am
que refleja Alicias


Em
(oh oh oh  oh oh)


(teclado solo 2)

  mientras esta este solo se escucha algo como esto: 
 
  (R4)
    Am                  Em             
 1|-----------------------------------------------| 
 2|-----------------------------------------------|
 3|--------5---5--5--5-7--------------------------|(2 veces)
 4|--5-6-7---7--7--7-----------5---5---5---5---7--|
 5|----------------------5-6-7---7---7---7---7----|
 6|-----------------------------------------------|


Am(R1)          Em    
(oh oh oh oh   oh  oh oh oh oh oh)

Am (R1)    
ya no regreso a su cuarto alicia

Em                 Am
(ya no) ya no regreso 

             Em
(oh ohoh ohoh oh)

Am (R3)      
se quedo en el viaje Alicia 

Em
(ya no) no regreso
		   
AcordesyTabs.com © 2008 Acordes y Tablaturas para guitarra. Tabs and Chords for guitar. Aviso Legal - Contacto
El uso de este sitio está sujeto a la aceptación de los términos y condiciones (38 usuarios online)