tablaturas, partituras y acordes para guitarra
Busca por banda/artista:
 
y/o título de la canción:
A B C D E F G H I J K L M N O P Q R S T U V W X Y Z 0 1 2 3 4 5 6 7 8 9 / Top 100 tabs
Categorías
Usuarios
usuario:
Darse de alta
password:
Artistas más visitados
Publicidad
TOP acordes y tablaturas de Enrique Bunbury


Estás en: Inicio > Letra E > Acordes y tablaturas de Enrique Bunbury > Alicia (Expulsada al país de las maravillas)
Alicia (Expulsada al país de las maravillas)
de Enrique Bunbury
Puntúa este acorde/tab:      
(0.7/5)
Reportar este acorde/tab
  Añadir a tus favoritos
  Imprimir
                  'Alicia'

Do      
Alicia sortilegio de Babia
Sol
en el fondo del espejo,
Mim
Alicia ni supone ni piensa
Lam
con la luna por cerebro...

Sólo teclados:
E-7*5-3-3-5-3-2-3-5-7-5------------
B----------------------------------
G----------------------------------
D----------------------------------
A----------------------------------
E----------------------------------

Do
Alicia en su pensamiento
            Sol 
tirando del hilo de su enredo,
Mim                              Lam
Alicia en el laberinto sin minotauro

me llama Teseo...

  Fa
Alicia es siempre tan breve
                Lam
que ya ha terminado,
   Fa
Alicia dice que te quiere
                  Lam
cuando ya te ha abandonado...

  Re
Alicia expulsada al país 
     Fa#m
de las maravillas,
           Sim
para Alicia hoy
              Mi
es siempre todavía...


Este es el sólo, no es exactamente igual pero 
se parece mucho.

  Do        Mim        Lam       Sol
E---0---0---1*2*3-------0---1-0----------
B-1---1---1-------1-3-1---1-----1-0------
G----------------------------------------
D----------------------------------------
A----------------------------------------
E----------------------------------------
  Do        Mim        Lam        Sol
E---0---0---1*2*3-------0---1-0----------
B-1---1---1-------1-3-1---1-----1-0-1-3-5
G----------------------------------------
D----------------------------------------
A----------------------------------------
E----------------------------------------

Do
Alicia viajando entre lunas 
Sol
de charla con musarañas,
Mim
Alicia tejiendo las nubes
Lam
con tela que nunca se acaba...

  Fa
Alicia es siempre tan breve
               Lam
que ya ha terminado,
  Fa
Alicia dice que te quiere 
                   Lam
cuando ya te ha abandonado...

  Re
Alicia expulsada al país
     Fa#m
de las maravillas,
           Sim
para Alicia hoy
              Mi          Mi
es siempre todavía...

  Re
Alicia expulsada al país 
      Fa#m
de las maravillas,
  Re
Alicia expulsada al país 
      Fa#m          Re
de las maravillas...ah¡
Fa#m
ah¡...
Sim       Mi (hasta el final)
ah¡...

 He querido corregir algunos errores que 
he observado en las otras transcripciones
(sin ánimo de ofender) y creo que esta
es la buena, de todos modos comparad y
quedaos con la que os guste.
		   
AcordesyTabs.com © 2008 Acordes y Tablaturas para guitarra. Tabs and Chords for guitar. Aviso Legal - Contacto
El uso de este sitio está sujeto a la aceptación de los términos y condiciones (21 usuarios online)