tablaturas, partituras y acordes para guitarra
Busca por banda/artista:
 
y/o título de la canción:
A B C D E F G H I J K L M N O P Q R S T U V W X Y Z 0 1 2 3 4 5 6 7 8 9 / Top 100 tabs
Categorías
Usuarios
usuario:
Darse de alta
password:
Artistas más visitados
Publicidad
TOP acordes y tablaturas de Hamlet


Al lado
de Hamlet
Puntúa este acorde/tab:      
(0.5/5)
Reportar este acorde/tab
  Añadir a tus favoritos
  Imprimir
+ Tabulados de made in spain!                   +
+ (http://mades.kaos.es)                        +
+++++++++++++++++++++++++++++++++++++++++++++++++

PARTE 1:
1 |--------------------------|
2 |--------------------------|
3 |--------------------------|
4 |--2-5@--------------------|
5 |--2----8*-7*-5*-----------|
6 |-------6*-5*-3*-----------|

@ TIRAR LA CUERDA HACIA ABAJO
* TOCAR SOLO UNA VEZ

PARTE 2:
1 |--------------------------|
2 |--------------------------|
3 |--------------------------|
4 |--2-----------------------|
5 |--2-5*-8#-----------------|
6 |----3*-6#-----------------|

* TOCAR SOLO UNA VEZ
# TOCAR DOS VECES

ESTRIBILLO:
	Se compone de las dos partes ya tabuladas:
	1º- parte 2(cambia ligeramente el ritmo)
	2º- parte 1

parte lenta 1:
1 |------------------|
2 |------------------|
3 |------------------|
4 |--2---2-----------|
5 |--2---2-8*--------|
6 |----3#--6*--------|

* tocar una vez
# tocar una vez tirando de la cuerda hacia fuera
	-Las dos primeras veces apagar el sonido en la última quinta.
	-Las otras dos dejar que suene la última quinta.

parte lenta 2:
1 |------------------|
2 |------------------|
3 |------------------|
4 |--2---2-----------|
5 |--2---2-----------|
6 |----3#--3*--------|

# tocar una vez tirando de la cuerda hacia fuera
* tocar dos veces tirando de la cuerda

parte lenta 3:
1 |------------------|
2 |------------------|
3 |------------------|
4 |------------------|
5 |--5----5-6*-------|
6 |--3-4#-3-4*-------|

# tocar una vez tirando de la cuerda hacia fuera
* tocar una vez



El solo empieza cuando la guitarras y el bajo tocan la parte lenta 3.
Mientras la guitarra solista toca el solo, el bajo y la guitarra alternan la parte lenta 2 y 3;
y la parte 1 al final, luego el bajo se queda solo tocando la parte 2.
Las dos guitarras se meten en el estribillo.
		   
AcordesyTabs.com © 2008 Acordes y Tablaturas para guitarra. Tabs and Chords for guitar. Aviso Legal - Contacto
El uso de este sitio está sujeto a la aceptación de los términos y condiciones (56 usuarios online)