tablaturas, partituras y acordes para guitarra
Busca por banda/artista:
 
y/o título de la canción:
A B C D E F G H I J K L M N O P Q R S T U V W X Y Z 0 1 2 3 4 5 6 7 8 9 / Top 100 tabs
Categorías
Usuarios
usuario:
Darse de alta
password:
Artistas más visitados
Publicidad
TOP acordes y tablaturas de Walter Giardino


Alquimia
de Walter Giardino
Puntúa este acorde/tab:      
(1/5)
Reportar este acorde/tab
  Añadir a tus favoritos
  Imprimir
INTRO:

Eb -18/21-18b--21-20-18-18/20-18-17------17-14/18-14b---18-16-14-14/16-14-13-----13-
Bb ---------18---------------------18-20------------14----------------------14-16---
Gb ----------------------------------------------------------------------------------
Db ----------------------------------------------------------------------------------
Ab ----------------------------------------------------------------------------------
Eb ----------------------------------------------------------------------------------

Eb -11/14-11b---14-13-11-11/13--11-10-----10--14-13-11--------------------------------
Bb ---------11-----------------------11-13------------14-13-11-14-13-11-10-11-13-11~--
Gb -----------------------------------------------------------------------------------
Db -----------------------------------------------------------------------------------
Ab -----------------------------------------------------------------------------------
Eb -----------------------------------------------------------------------------------

RIFF 1:                                                     
Eb ---------------------------------------------------- |
Bb ---------------------------------------------------- |
Gb ---------------------------------------------------- |  x3
Db --------------------------------------2-1---0------- |
Ab -0-0-0-3-0-0-0-5-0-5-4-3--0-0-0-3-0-0-----3---3-2-0- |
Eb ---------------------------------------------------- |
                                                        /
Eb -----------------------------------------------------------------| 
Bb -----------------------------------------------------------------|
Gb -----------------------------------------------------------------| 
Db -----------------------------------------------------------------| 
Ab -0-0-0-3-0-0-0-5-0-5-4-3-0-0-0-3-0-0-7-6---5-----5-----------7---|
Eb -----------------------------------------8---8-7---8-7-4-5-7-5---|


Am       C      G      E    
Miro al pie de la escalera
F      G          Am  
No será fácil trepar
C       G          E  
Trabajar la dura piedra
F        G       Am
Mucho tiempo llevará

Dm    Am    E     Am     
Aprendiz, fuego y sal
Dm   C     Dm     E
ángeles y diablos...

(Riff1)

Por amor vine a esta tierra
Mi deber es continuar
Siento la naturaleza
Agua azul de la hermandad

Aprendiz, fuego y sal
ángeles y diablos...

(Riff1)

Solo

Dm  Am  E  Am     Dm   C  Dm  E
Oro y pan es mi trabajo
Agua de mi corazón
Se que Dios esta a mi lado
Con la fuerza del león 

Aprendiz, hermandad
Signo de lo universal

Aprendiz, fuego y sal
ángeles y diablos...

(Punteo sobre Riff 1  , Intro)
		   
AcordesyTabs.com © 2008 Acordes y Tablaturas para guitarra. Tabs and Chords for guitar. Aviso Legal - Contacto
El uso de este sitio está sujeto a la aceptación de los términos y condiciones (26 usuarios online)