tablaturas, partituras y acordes para guitarra
Busca por banda/artista:
 
y/o título de la canción:
A B C D E F G H I J K L M N O P Q R S T U V W X Y Z 0 1 2 3 4 5 6 7 8 9 / Top 100 tabs
Categorías
Usuarios
usuario:
Darse de alta
password:
Artistas más visitados
Publicidad
TOP acordes y tablaturas de El Ultimo ke zierre


Altero mi cuerpo
de El Ultimo ke zierre
Puntúa este acorde/tab:      
(0.3/5)
Reportar este acorde/tab
  Añadir a tus favoritos
  Imprimir
  D                A#                F                 G   F  
  altero mi kuerpo,busko sensaciones,pa´sentirme vivo
  D                   A#               F               G   F
  nunka me arrepiento,de lo ke me hago,mas lo necesito
  D                    A#
  no me buskes en las kalles
  F                      G      F
  kuando el sol vaya por ellas
  D              A#
  estare solo de noche
  F              G        F 
  agarrado a una votella


  /--------------------------------------------------------------------------------------------------------------------/
  /-------------8-8----------------------------------------------------------------------------------------------------/
  /-----------9-----10-9-10-12-10--------------------10-10-10-10-9-----------------------------------------------------/BIZ
  /--10-10-10---------------------12--12-12-10---10----------------12-10------10----10-12-10---------------------------/
  /-------------------------------------------12-------------------------12-12---12------------------------------------/
  /--------------------------------------------------------------------------------------------------------------------/

  /----------------------------------------------------------------------------------------------------------------
  /----------------------------------------------------------------------------------------------------------------
  /--9-10-9-10-9-10-9-10-9-10--9-12-9-12-9-12---------------------9-17-14-14--14-17-14-16-14-17-14-16--12-15----12-
  /-------------------------------------------12-10---10----10-12--------------------------------------------15----
  /------------------------------------------------12----12--------------------------------------------------------
  /----------------------------------------------------------------------------------------------------------------

  /-----------------------------------------------------------/
  /-----------------------------------------------------------/
  /-----------------------------------14-------------12-------/
  /-15-14-12--12-12-12-15-12-15-12-15----12-15-12-15----15----/
  /-----------------------------------------------------------/
  /-----------------------------------------------------------/

  D                  A#
  donde siempre paso frio
  F                 G     F
  y a menudo siento miedo
  D                    A#
  donde el ke kiere se pierde
  F                    G         F
  donde el ke kiere me enkuentra
  D                A#                F                G   F
  altero mi kuerpo,busko sensaciones,pa´sentirme vivo
  D                   A#               F               G   F
  nunka me arrepiento,de lo ke me hago,mas lo nesecito
  D                  A#
  y si me enkuentras llorando
  F                    G      F
  de rodillas sobre el vomito
  D               A#
  ke salio de mis entrañas
  F                   G         F 
  no pienses ke estoy sufriendo
   D              A# 
  la,ra,la lalala larala
   F              G      F  
  la,ra,la lalala larala 
   D              A#
  la,ra,la lalala larala
   F               G     F
  la,ra,la lalala larala
  D                A#                F 
  altero mi kuerpo,busko sensaciones,pa´sentirme vivo


  ESTA KANCION NO ME FUE MUY DIFICIL SAKARLA,PERO NE POR ESO ES 
MALA INKLUSO ES UNA DE LAS MEJORES LETRAS KE E ESKUCHADO OJALA 
KE SAKEN EL PUNTEO Y SUERTE
		   
AcordesyTabs.com © 2008 Acordes y Tablaturas para guitarra. Tabs and Chords for guitar. Aviso Legal - Contacto
El uso de este sitio está sujeto a la aceptación de los términos y condiciones (24 usuarios online)