tablaturas, partituras y acordes para guitarra
Busca por banda/artista:
 
y/o título de la canción:
A B C D E F G H I J K L M N O P Q R S T U V W X Y Z 0 1 2 3 4 5 6 7 8 9 / Top 100 tabs
Categorías
Usuarios
usuario:
Darse de alta
password:
Artistas más visitados
Publicidad
TOP acordes y tablaturas de Platero y Tú


Alucinante
de Platero y Tú
Puntúa este acorde/tab:      
(0.3/5)
Reportar este acorde/tab
  Añadir a tus favoritos
  Imprimir
INTRODUCCIÓN

Guitarra 1

e|-0-4-5-4-5-4-5-4-5-4...---------------|
G|-5-5-5-5-5-5-5-5-5-5...---------------|
D|--------------------------------------|
B|--------------------------------------|
A|--------------------------------------|
E|--------------------------------------|

Guitarra 2 
e|--------------------------------------|
G|--------------------------------------|
D|--------------------------------------|
B|--------------------------------------|
A|--------------------------------------|
E|-0-0-0-0-0-0-0-0-0-0-0...-------------|
  (.......PM...............)



VERSO

* Este es el ritmo que lleva el verso de toda la canción

* La guitarra 2 hace siempre esto. 
* La guitarra 1 hace la introducción una vez
  y luego hace lo mismo que la guitarra 2.


e|-----------------------------------------|
G|-----------------------------------------|
D|---14-14-14---11-11-11--9-9-9---7-7-9-9--|
B|---14-14-14---11-11-11--9-9-9---7-7-9-9--|
A|---12-12-12---9--9--9---7-7-7---5-5-7-7--|
E|-----------------------------------------|

"No se si es cierto lo que he visto..."


ESTRIBILLO

Guitarra 1 y Guitarra 2

e|----------------------------------------------------|
G|----------------------------------------------------|
D|----11-------7--------------------------------------|
B|----11-------7-------7-----------7-------7---7--7---|
A|----9--------5-------7---------7-------7---7----7---|
E|---------------------5-----5-5-----5-5----------5---|
 "Y es que es tan alucinante..."

Guitarra 1 y Guitarra 2

e|----------------------------------------------------|
G|----------------------------------------------------|
D|-9-------7------------------------------------------|
B|-9-------7--------7--------------7--------7-----7---|
A|-7-------5--------7------------7--------7---7---7---|
E|------------------5--------5-5------5-5---------5---|
 "Que hace dias que no duermo..."


Guitarra 1

e|----------------------------------------------------|
G|----------------------------------------------------|
D|-7-------9------------------------------------------|
B|-7-------9--------7--------------7--------7-----7---|
A|-5-------7--------7------------7--------7---7---7---|
E|------------------5--------5-5------5-5---------5---|

Guitarra 2

e|-----------------------------------------------------|
G|-----------------------------------7-5-7-5-7-5-7-5---|
D|-7-------9-------------------------------------------|
B|-7-------9--------7----------------------------------|
A|-5-------7--------7----------------------------------|
E|------------------5----------------------------------|
  "Por si acaso al despertarme ..."


Guitarras 1 y 2

e|------------------------------------------------------------|
G|------------------------------------------------------------|
D|-7----------------------------------------------------------|
B|-7----------------------------------------------------------|
A|-5----------------------------------------------------------|
E|------------------------------------------------------------|
"Veo que todo ha sido un sueño"



SOLO

Guitarra 1. Hace los mismos acordes que en el verso.

e|-----------------------------------------|
G|-----------------------------------------|
D|---14-14-14---11-11-11--9-9-9---7-7-9-9--|
B|---14-14-14---11-11-11--9-9-9---7-7-9-9--|
A|---12-12-12---9--9--9---7-7-7---5-5-7-7--|
E|-----------------------------------------|


Guitarra 2. Es la que hace el solo, que es algo asi.

e|--------------------------------------------|
D|---------------------------------------9-9--|
G|---14-14-14-14-11-11-11-11-9-9-9-9-7-6-9-9--|
B|---14-14-14-14-11-11-11-11-9-9-9-9-7-7-7-7--|
A|--------------------------------------------|
E|--------------------------------------------|


* Esto es una pequeña corrección / ampliación de la otra tab. 
* Esta entera xq lo que falta es repetición de lo anterior.
		   
AcordesyTabs.com © 2008 Acordes y Tablaturas para guitarra. Tabs and Chords for guitar. Aviso Legal - Contacto
El uso de este sitio está sujeto a la aceptación de los términos y condiciones (26 usuarios online)