tablaturas, partituras y acordes para guitarra
Busca por banda/artista:
 
y/o título de la canción:
A B C D E F G H I J K L M N O P Q R S T U V W X Y Z 0 1 2 3 4 5 6 7 8 9 / Top 100 tabs
Categorías
Usuarios
usuario:
Darse de alta
password:
Artistas más visitados
Publicidad
TOP acordes y tablaturas de Juan Luis Guerra


Amapola
de Juan Luis Guerra
Puntúa este acorde/tab:      
(0.4/5)
Reportar este acorde/tab
  Añadir a tus favoritos
  Imprimir
Transcripcion de Ivan Diaz C.
(elbronx@hotmail.com)

Acordes:
           EADGBe
A        : x02220
Bm(add E): 024430
D(add E) : xx0230

Tuning : E A D G B E 	Time Signature: 4/4

Intro (x2)

 A                 Bm (add E)        D (add E)        A
|--------0-----0--|-------0-----0---|--------0----0--|--------0-----0--|
|----2-----2------|---3-----3-------|----3-----3-----|----2-----2------|
|--2---2-----2----|-4---4-----4-----|--2---2-----2---|--2---2-----2----|
|-----------------|-----------------|0---------------|-----------------|
|0----------------|2----------------|----------------|0----------------|
|-----------------|-----------------|----------------|-----------------|

Verso:

    Abre las hojas del viento mi vida ponle una montura al rio
|9----9---9--9-9--|7---7---7--7-7----|5---5---5--5-5----------|4---4---4--4-4---|
|--10---10--------|--7---7-----------|--5---5-----------------|--5---5----------|
|-----------------|------------------|------------------------|-----------------|
|-----------------|------------------|------------------------|-----------------|
|-----------------|------------------|------------------------|-----------------|
|-----------------|------------------|------------------------|-----------------|

 cabalga y se te da frio te arropas        con la piel de las estrellas
|3---3---3--3-3---------|2---2---2--2-2---|1---1---1--1-1--------------|-----------------|
|--3---3----------------|--3---3----------|--1---1---------------------|5---5---5--5-5---|
|-----------------------|-----------------|----------------------------|--4---4----------|
|-----------------------|-----------------|----------------------------|-----------------|
|-----------------------|-----------------|----------------------------|-----------------|
|-----------------------|-----------------|----------------------------|-----------------|

 De almohada la luna llena                                 y de sueño el amor mio
|-----------------------|--------------------------------|--------------------------|--------------------------------|
|5---5---5--5-5---------|3---3---3--3h4------------------|-0---0---2--3---2--0------|--------------------------------|
|--4---4----------------|--4---4--------4----------------|----------------------2---|--------------------------------|
|-----------------------|--------------------------------|--------------------------|--------------------------------|
|-----------------------|--------------------------------|--------------------------|--------------------------------|
|-----------------------|--------------------------------|--------------------------|--------------------------------|

Coro:

Y una amapola      me lo dijo ayer   que te voy a ver que te voy a ver 
 A                 Bm (add E)        D (add E)        A
|--------0-----0--|-------0-----0---|--------0----0--|--------0-----0--|
|----2-----2------|---3-----3-------|----3-----3-----|----2-----2------|
|--2---2-----2----|-4---4-----4-----|--2---2-----2---|--2---2-----2----|
|-----------------|-----------------|0---------------|-----------------|
|0----------------|2----------------|----------------|0----------------|
|-----------------|-----------------|----------------|-----------------|

Y un arcoiris      me pinto la piel   para amanecer contigo
 A                 Bm (add E)        D (add E)        A
|--------0-----0--|-------0-----0---|--------0----0--|--------0-----0--|
|----2-----2------|---3-----3-------|----3-----3-----|----2-----2------|
|--2---2-----2----|-4---4-----4-----|--2---2-----2---|--2---2-----2----|
|-----------------|-----------------|0---------------|-----------------|
|0----------------|2----------------|----------------|0----------------|
|-----------------|-----------------|----------------|-----------------|

Verso:
Cierra la noche y el dia,
para que todo sea nuestro
y una gran fuga de besos
se pose sobre tu boca,
y que el trinar de las rosas
te dia cuanto te quiero

Coro...


Ivan Diaz C.
(elbronx@hotmail.com)
		   
AcordesyTabs.com © 2008 Acordes y Tablaturas para guitarra. Tabs and Chords for guitar. Aviso Legal - Contacto
El uso de este sitio está sujeto a la aceptación de los términos y condiciones (26 usuarios online)