tablaturas, partituras y acordes para guitarra
Busca por banda/artista:
 
y/o título de la canción:
A B C D E F G H I J K L M N O P Q R S T U V W X Y Z 0 1 2 3 4 5 6 7 8 9 / Top 100 tabs
Categorías
Usuarios
usuario:
Darse de alta
password:
Artistas más visitados
Publicidad
TOP acordes y tablaturas de Alberto Plaza


Estás en: Inicio > Letra A > Acordes y tablaturas de Alberto Plaza > Amiga del dolor
Amiga del dolor
de Alberto Plaza
Puntúa este acorde/tab:      
(0.1/5)
Reportar este acorde/tab
  Añadir a tus favoritos
  Imprimir
* Usar capo en el 3er traste
* Esta es la versión del concierto "15 Años Vivo"


1.                         Em                 Emadd9
   Aunque tuvo todo a su favor un tiempo atras
   A7            A7/B       D
   se le vió partir una mañana
   Bm          Bm/A          Em         Emadd9
   con la vida rota en mil pedazos y además
   A7       A7/B         C   G A7 D
   otro corazón que palpitaba

1.
   Desde el día en que ella se hizo amiga del dolor
   no ha podido echarlo de su mente
   ahora solo tiene el gran recuerdo de un amor
   y lo que lucharon con la gente

2.         Bm      F#m
   Se llamará Jose Miguel
                B7              Em
   porque es el nombre del que amaba   
            A7            D
   y aunque ahora ya no esté 
       Bm         Em
   todavía no se apaga
        A7          D
   la tibieza de su piel
             Bm           F#m
   y si es mujer, no sabe bien
             B7              Em 
   pues ni siquiera lo ha pensado
            A7        D
   porque esta segura que
         Bm              Em
   en su vientre va el pasado
         A7          D
   y que volverá a nacer

Intermedio:

   D                     A7       Bm                    Bm* 
||-----2--0-----0-----|--0-----------------|--2--------7--------|
||-----------3--------|--2--3-----------3--|-----3-----7-----7--|
||--2--------------2--|--------2-----4-----|--------4--7--7-----|
||--------------------|--2-----------------|--------------------|
||--------------------|-----------2--------|--------------------|
||--------------------|--------------------|--------------------|

             D                   
  --7--------5------||
  --7-----7--7------||
  --7--7-----7------||
  ------------------||
  ------------------||
  ------------------||

1. 
   El decía yo no se si estuvo mal o bien
   y voy a decirselo a tu padre
   lo que a mi me importa es que te quiero más que ayer
   y eso es solamente es lo que vale

3.                 G   A7
   Se olvida de pensar 
                  F#m  B7
   que estas enamorada
                      Em            A7
   que en estas cosas vale el corazón 
                 G   D
   y el resto es nada

2. 
   Se llamará Jose Miguel
   porque es el nombre del que amaba
   y aunque ahora ya no esté 
   todavía no se apaga
   la tibieza de su piel
   y si es mujer, no sabe bien
   pues ni siquiera lo ha pensado
   porque esta segura que
   en su vientre va el pasado
   y que volverá a nacer (Bis)

Acordes:

     Em   Emadd9 A7   A7/B    D    Bm   Bm/A C       G    F#m  B7         
E||--0----2------0----0----|--2----2----2----0----|--3----2----2--------||
B||--0----0------2----2----|--3----3----3----1----|--0----2----4--------||
G||--0----0------0----0----|--2----4----4----0----|--0----2----2--------||
D||--2----2------2----2----|--0----4----4----2----|--0----4----4--------||
A||--2----2------0----2----|-------2----0----3----|--2----4----2--------||
E||--0----0----------------|----------------------|--3----2-------------||
		   
AcordesyTabs.com © 2008 Acordes y Tablaturas para guitarra. Tabs and Chords for guitar. Aviso Legal - Contacto
El uso de este sitio está sujeto a la aceptación de los términos y condiciones (38 usuarios online)