tablaturas, partituras y acordes para guitarra
Busca por banda/artista:
 
y/o título de la canción:
A B C D E F G H I J K L M N O P Q R S T U V W X Y Z 0 1 2 3 4 5 6 7 8 9 / Top 100 tabs
Categorías
Usuarios
usuario:
Darse de alta
password:
Artistas más visitados
Publicidad
TOP acordes y tablaturas de Panda
:: Hola - Panda


Estás en: Inicio > Letra P > Acordes y tablaturas de Panda > Amiguito
Amiguito
de Panda
Puntúa este acorde/tab:      
(1/5)
Reportar este acorde/tab
  Añadir a tus favoritos
  Imprimir
Esta rola ta bien facililla, solo sigan la tablatura como esta y pues le van a agarrar el 
pedo luego luego. Suerte, dudas, aclaraciones, u otra cosa ahi ta mi mail.

Inicio solo guitarra
despues del inicio sigue esto que ya va con bass y se toca dos veces 
|--------------------------------------------------------------------------------|
|--------------------------------------------------------------------------------|
|----4-4-4-4-4-4-4-4--3-3-3-3-3-3-3-3--1-1-1-1-1-1-1-1---------------------------|
|-------------------------------------------------------4-4-4-4-4-4-4-4----------|

Te dices tu llamar un amigo... 
|--------------------------------------------------------------------------------|
|--------------------------------------------------------------------------------|
|----4-4-4-4-4-4-4-4--3-3-3-3-3-3-3-3--1-1-1-1-1-1-1-1---------------------------| x 4 veces
|-------------------------------------------------------4-4-4-4-4-4-4-4----------|

Puente para coro
|--------------------------------------------------------------------------------|
|--------------------------------------------------------------------------------|
|--4-4--4-4-4--------------------------1-1-1-------------------------------------|
|--------------4-4--4-4-4--2-2--2-2-2--------4-4-4-------------------------------|

Amigo deja de creer...

|--------------------------------------------------------------------------------|
|--------------------------------------------------------------------------------|
|-4-4-4-4-4-4-4-4--1-1-1-1-1-1---------------------------------------------------| x 2 veces
|-------------------------------2-2-2-2-2-2-2--4-4-4-4-4-4-4---------------------|

y pues todo lo ya escrito se repite en este orden

intro
verso
puente
coro
para salir es el coro pero con palm mute (tapando las cuerdas)

Te dices tu llamar
un amigo de verdad
me dices tus mentiras 
y asi de tonto he de estar

Pero no hay necesidad
ya aprendi a perdonar 
yo hize lo imposible
para bien contigo estar

Inventas cosas de mi
dices que abuso de ti
me confundo quien sera
el abusado aqui ?

Pero no hay necesidad
todo lo que digo esta mal
aparte siempre haces
a mis amigos llorar.

Amigo deja de creer 
que al vivo le pegas bien
ahora que va a suceder ?
ya no quiero volverte a ver

Ongi me vino a decir
que tu hablas mal de mi
me picas y criticas 
tu siempre has sido asi

Pero no hay necesidad
de golpear a los demas
el pobre Ongi ya nunca
podra quedar igual


Amigo deja de creer 
que al vivo le pegas bien
ahora que va a suceder ?
ya no quiero volverte a ver

ya no quiero volverte a ver x 4
		   
AcordesyTabs.com © 2008 Acordes y Tablaturas para guitarra. Tabs and Chords for guitar. Aviso Legal - Contacto
El uso de este sitio está sujeto a la aceptación de los términos y condiciones (19 usuarios online)