tablaturas, partituras y acordes para guitarra
Busca por banda/artista:
 
y/o título de la canción:
A B C D E F G H I J K L M N O P Q R S T U V W X Y Z 0 1 2 3 4 5 6 7 8 9 / Top 100 tabs
Categorías
Usuarios
usuario:
Darse de alta
password:
Artistas más visitados
Publicidad
TOP acordes y tablaturas de Blur


Estás en: Inicio > Letra B > Acordes y tablaturas de Blur > Chinese Bombs
Chinese Bombs
de Blur
Puntúa este acorde/tab:      
(0.5/5)
Reportar este acorde/tab
  Añadir a tus favoritos
  Imprimir
Song name:Chinese Bombs-Blur
Album name:Blur
Transcibed by Beau


E|--------------------------------|
B|-----2---------------2----------|  ........listen to song for timing and how m
G|-----2---------------2----------|                   
D|-----2----7-6-5------2----5-4-3-|  
A|-0-0---0--5-4-3--0-0---0--3-2-1-|
E|--------------------------------|
   
   
    (repeat once)
E|----------------:||-------------------------------|
B|----------------:||-------------------------------|  ........goes somthin like
G|----------------:||-------------------------------|          probly figure it 
D|----------------:||-------------------------------|          i havent figured 
A|:-5-5-4-5-4-5-4-:||-9-9-5-9-5-9-5-5-5-5-4-5-4-5-4-|
E|:-3-3-2-3-2-3-2-:||-7-7-3-7-3-7-3-3-3-3-2-3-2-3-2-|


hey Im only 14 and I figured this out myself so if i made any mistakes email me 
		   
AcordesyTabs.com © 2008 Acordes y Tablaturas para guitarra. Tabs and Chords for guitar. Aviso Legal - Contacto
El uso de este sitio está sujeto a la aceptación de los términos y condiciones (27 usuarios online)