tablaturas, partituras y acordes para guitarra
Busca por banda/artista:
 
y/o título de la canción:
A B C D E F G H I J K L M N O P Q R S T U V W X Y Z 0 1 2 3 4 5 6 7 8 9 / Top 100 tabs
Categorías
Usuarios
usuario:
Darse de alta
password:
Artistas más visitados
Publicidad
TOP acordes y tablaturas de Pasteles Verdes


Amo y Esclavo
de Pasteles Verdes
Puntúa este acorde/tab:      
(0.1/5)
Reportar este acorde/tab
  Añadir a tus favoritos
  Imprimir
Hola a todos,  esta es mi primera transcripcion 
espero les guste ,es muy facil desacarla  y se 
oye muy bien. Si no me cren pues chequenla


e----8v-------------------------------------------
B-8-----8-9-11v----8-9v------8v---8-9-8----8-9-11-
G---------------10------8-10------------10--------
D-------------------------------------------------
A-------------------------------------------------
E-------------------------------------------------

             
e--8-9--8-6--8-9-8-9-8--------------------
B-----------------------9-8---------------
G-----------------------------------------
D---------------------------0-4-4-3-4-----
A-------------------------------------4---
E-----------------------------------------

Nota. ay una parte que va algo rapido pero 
 solo es cosa de que escuchen  La cancion para
 ponerla a tiempo, en las v se alarga un poco y
 va vibrado, la letra ya la mando otra persona y
 tambien el intro, pero este se escuha casi igual 
 al de la cancion. Correcciones dudas, comentarios
 a  irineo_valdez@yahoo.com.mx
		   
AcordesyTabs.com © 2008 Acordes y Tablaturas para guitarra. Tabs and Chords for guitar. Aviso Legal - Contacto
El uso de este sitio está sujeto a la aceptación de los términos y condiciones (24 usuarios online)