tablaturas, partituras y acordes para guitarra
Busca por banda/artista:
 
y/o título de la canción:
A B C D E F G H I J K L M N O P Q R S T U V W X Y Z 0 1 2 3 4 5 6 7 8 9 / Top 100 tabs
Categorías
Usuarios
usuario:
Darse de alta
password:
Artistas más visitados
Publicidad
TOP acordes y tablaturas de Los Askis


Estás en: Inicio > Letra L > Acordes y tablaturas de Los Askis > Amor sin primavera
Amor sin primavera
de Los Askis
Puntúa este acorde/tab:      
(0.8/5)
Reportar este acorde/tab
  Añadir a tus favoritos
  Imprimir
Nota: Esta canción es original de Yaguarú, 
sólo que la puse en el archivo de los askis por que así 
lo pidieron los visitantes de ATAME, 
también la podrán encontrar en el archivo de yaguarú.

(INTRO)

E|------11-10-8-11-10-8-11-8----------10-8--10-10-8--10---
B|-8-8-8----------------------------------11-------11--11- 
G|----------------------------10-10-10--------------------
D|--------------------------------------------------------
A|--------------------------------------------------------
E|--------------------------------------------------------

E|------8----8----8-8-8-8-11-8-----15-16-15---------------------
B|-------11-9-11-9------------11-----------18-18-18------18-18--
G|-8-8-8-------------------------------------------17--17-------
D|---------------------------------------------------18---------
A|--------------------------------------------------------------
E|--------------------------------------------------------------

E|---15-16-15-15-15-15-15--15-15----15---------------------------
B|-18--------------------16-------16--16-15-15-15-15-15-15-15-15-
G|---------------------------------------------------------------
D|---------------------------------------------------------------
A|---------------------------------------------------------------
E|---------------------------------------------------------------

E|------15------------------------------------------------
B|-15-15--------------------------------------------------
G|--------16-17-------------------------------------------
D|--------------------------------------------------------
A|--------------------------------------------------------
E|--------------------------------------------------------



            Cm
Esta es la historia tan triste que vivo
      Bb   
me desespero y me siento confundido
         Ab
es que no tengo quien consuele
                  Eb
minutos este corazón.

           Fm
Y me enloquezco, si es que no te tengo
           Cm
me siento raro y através del tiempo
          G
sigo esperando que regreses ami
                  Cm
mi tan querido amor.

         Cm         
Desconsolado y extraño tu pelo
            Bb   
tus rojos labios y esos ojazos negros
          Ab
tu dulce forma de mirar, tu sonrisa 
             Eb
que me conquisto.

        Fm
Desesperado veo correr el tiempo
          Cm
que consolado junto a tus recuerdos
            G
y mientras tanto yo sigo esperando
             Cm
que llegues amor.

             Bb
No hay primavera 

desde a quel día que te fuiste
           Cm
el sol no sale 

ya se secaron las rosas
            Bb
que tu plantaste y así mismo se ha secado
             Cm
ya este corazón.

        Ab
Que se muere por ti
         Cm
si tu no estas amor
       Ab
si no vuelves jamás
         G
se muere mi corazón.

(INTRO)

         Cm         
Desconsolado y extraño tu pelo
            Bb   
tus rojos labios y esos ojazos negros
          Ab
tu dulce forma de mirar, tu sonrisa 
             Eb
que me conquisto.

        Fm
Desesperado veo correr el tiempo
          Cm
que consolado junto a tus recuerdos
            G
y mientras tanto yo sigo esperando
             Cm
que llegues amor.

             Bb
No hay primavera 

desde a quel día que te fuiste
           Cm
el sol no sale 

ya se secaron las rosas
            Bb
que tu plantaste y así mismo se ha secado
             Cm
ya este corazón.

        Ab
Que se muere por ti
         Cm
si tu no estas amor
       Ab
si no vuelves jamás
         G
se muere mi corazón.

Bb
No hay primavera 

desde a quel día que te fuiste
           Cm
el sol no sale 

ya se secaron las rosas
            Bb
que tu plantaste y así mismo se ha secado
             Cm
ya este corazón.

        Ab
Que se muere por ti
         Cm
si tu no estas amor
       Ab
si no vuelves jamás
         G
se muere mi corazón.

(INTRO)

Después del INTRO se toca esto al final de la canción

E|------11-10-8-11------11-10-8-11-----11-10-8-11--11-10-8--
B|-8-8-8-----------8-8-8----------8-8-8---------------------
G|----------------------------------------------------------
D|----------------------------------------------------------
A|----------------------------------------------------------
E|----------------------------------------------------------

Dudas o comentarios favor de escribir a:
oscar_ole@hotmail.com
		   
AcordesyTabs.com © 2008 Acordes y Tablaturas para guitarra. Tabs and Chords for guitar. Aviso Legal - Contacto
El uso de este sitio está sujeto a la aceptación de los términos y condiciones (32 usuarios online)