tablaturas, partituras y acordes para guitarra
Busca por banda/artista:
 
y/o título de la canción:
A B C D E F G H I J K L M N O P Q R S T U V W X Y Z 0 1 2 3 4 5 6 7 8 9 / Top 100 tabs
Categorías
Usuarios
usuario:
Darse de alta
password:
Artistas más visitados
Publicidad
TOP acordes y tablaturas de Cky
:: Fat f - Cky


Estás en: Inicio > Letra C > Acordes y tablaturas de Cky > Inhuman creation station
Inhuman creation station
de Cky
Puntúa este acorde/tab:      
(0.8/5)
Reportar este acorde/tab
  Añadir a tus favoritos
  Imprimir

Camp Kill Yourself
(CKY)
"Inhuman Creation Station"

Tuning: D,G,C,......

this song is on cky3 while they're skateboarding

d---------------------------------------------|
a--5/-8--10h-8h-8/---5-5-5--5-5-5-------------|
e---------------------------------------------|

d------------------------7---7---3--|
a---3/--5--7h-5h--5--3--------------|
e-----------------------------------|

g---------------------------------|  |-----------------|    |------------------|
d------0-2-3-2-0----0-0-0---0-0-0-|  |-----2-3-----2-3-| or |---0-2-3----0-2-3-|
a-0--3----------------------------|  |-0-3-----0-3-----|    |-3--------3-------|
e---------------------------------|  |-----------------|    |------------------|


d--3-3-3-3-3-3-3-3-3-3-3-3-3---5-5/--7-7-7-7-7-7-7--|--3-3--2-2--|
a--1-1-1-1-1-1-1-1-1-1-1-1-1---3-3/--5-5-5-5-5-5-5--|--1-1--0-0--|
e-------------------------------------------------------------------|------------|

 (play in palm mute and fast)
d-----------------------------------------------------------------------------------|
a--1-1-1-1-1-1-1-1-1-1-1-1-1-1-1-1-1-0-0-0-------------3-3-3-5-5-5-5-5-5-5-5-5-5-5--|
e------------------------------------------3-3-3-1-1-1------------------------------|

                                        
d-12-12-12--10--10--10--7--10---12-12-12^--10--10--10--7--10----12-12-12--10--10--10--7x7--5-5-6-6|
a-10-10-10---8---8---8--5---8---10-10-10^---8---8---8--5---8----10-10-10---8---8---8--5x5--3-3-4-4|
e-------------------------------------------------------------------------------------------------|

e-mail me if i made any mistakes or for any comments at: JesseCKY@aol.com

===========================================Note====================================================
Some of the verses are repeated more than once so listen to the song a bunch of times to know when they are repeated.

		   
AcordesyTabs.com © 2008 Acordes y Tablaturas para guitarra. Tabs and Chords for guitar. Aviso Legal - Contacto
El uso de este sitio está sujeto a la aceptación de los términos y condiciones (36 usuarios online)