tablaturas, partituras y acordes para guitarra
Busca por banda/artista:
 
y/o título de la canción:
A B C D E F G H I J K L M N O P Q R S T U V W X Y Z 0 1 2 3 4 5 6 7 8 9 / Top 100 tabs
Categorías
Usuarios
usuario:
Darse de alta
password:
Artistas más visitados
Publicidad
TOP acordes y tablaturas de los Tres


Estás en: Inicio > Letra l > Acordes y tablaturas de los Tres > Amor Violento
Amor Violento
de los Tres
Puntúa este acorde/tab:      
(0.7/5)
Reportar este acorde/tab
  Añadir a tus favoritos
  Imprimir
Verso
G-------------------------|
D--------------4-2-0------|
A--0--4--4--2--------4-2--|
E-------------------------|

(Interludio I)
Gastaré toda mi vida......        Y maaaaaaaas
G--------------------|       |---------------------|
D--------------------| X 3   |---------------------|
A--4--4--4-----------|       |-2-2-2-2-2-2-2-2-2-2-|
E-----------2--2--2--|       |---------------------|


(Interludio II)
El segundo (Gastaré toda mi vida......) se repite y cambia el maaaaaas

y maaaaaasssss
G----------------------------|       |-------------------------------|
D----------------------------| X 3   |-------------------------------|
A--2-2-2--0-0-0--------------|       |-------------------------------|
E----------------4-4-4--2--2-|       |-0-0-0-0-0-0-0-0-0-000--0-2--0-|


Final
G-------------------------|
D--2-2-0-0----------------|
A----------4-4-2-2-0----0-|
E-------------------------|
		   
AcordesyTabs.com © 2008 Acordes y Tablaturas para guitarra. Tabs and Chords for guitar. Aviso Legal - Contacto
El uso de este sitio está sujeto a la aceptación de los términos y condiciones (23 usuarios online)