tablaturas, partituras y acordes para guitarra
Busca por banda/artista:
 
y/o título de la canción:
A B C D E F G H I J K L M N O P Q R S T U V W X Y Z 0 1 2 3 4 5 6 7 8 9 / Top 100 tabs
Categorías
Usuarios
usuario:
Darse de alta
password:
Artistas más visitados
Publicidad
TOP acordes y tablaturas de Hamlet


Estás en: Inicio > Letra H > Acordes y tablaturas de Hamlet > Antes y Después
Antes y Después
de Hamlet
Puntúa este acorde/tab:      
(0.5/5)
Reportar este acorde/tab
  Añadir a tus favoritos
  Imprimir

NOTACION

h= hammer on
s= slide
>= mantener el sonido
Harm= harmónico (si va seguido de una línea de puntos
hacerlo hasta donde termine la línea de puntos)
PM= palm muted (si va seguido de una línea de puntos hacerlo
hasta donde termine la línea de puntos)

------------------------------------------------------------
------------------------------------------------------------

AFINACION

Dropped Bb (Bb,F,Bb,Eb,G,C): afina la sexta cuerda de tu
guitarra 6 semitonos menos y el resto de las cuerdas afína-
las 4 semitonos menos

------------------------------------------------------------
------------------------------------------------------------


-----
INTRO
-----


1) [Con efectos]

                                            
-----------------------------------------------
-----------------------------------------------
----------------------------------------------- (x3)
-----------------------------------------------
-----------------------------------------------
--0--3--3--3--3--3--3--3--3--3--3--3--3--3--3--
     Harm....................................


--------------------------------3--
-----------------------3-----3-----
-----------------3--3-----3--------
-----------3--3--------------------
-----3--3--------------------------
--0--------------------------------
     Harm........................


2) (x2)


--------------------------
--6--6--6--6--6--6--6--6--
--5--5--5--5--5--5--5--5-- (x3)
--3--3--3--3--3--3--3--3--
--3--3--3--3--3--3--3--3--
--3--3--3--3--3--3--3--3--

--------------------------
--8--8--8--8--8--8--8s15--
--7--7--7--7--7--7--7s14--
--5--5--5--5--5--5--5s12--
--5--5--5--5--5--5--5s12--
--5--5--5--5--5--5--5s12--

----------------------------------
--15--15--15--15--15--15--15--15--
--14--14--14--14--14--14--14--14-- (x3)
--12--12--12--12--12--12--12--12--
--12--12--12--12--12--12--12--12--
--12--12--12--12--12--12--12--12--

--------------------------------
--13--13--13--13--13--13--13s6--
--12--12--12--12--12--12--12s5--
--10--10--10--10--10--10--10s3--
--10--10--10--10--10--10--10s3--
--10--10--10--10--10--10--10s3--


-------
VERSO 1 (Dime si has pensado en algún momento...)
-------


Tocar lo mismo que en la parte 2) de la Intro


--------
CHORUS 1
--------


1) (Ahora tu ansiedad espera libertad...) (x2)


----------------------------------------------------------    
----------------------------------------------------------
---------7s8-----8-8-----5-5---------7s8-----8-8----------
----------------------------------------------------------
---------5s6-----6-6-----3-3---------5s6-----6-6----------
--0-0-0-------0-------0-------0-0-0-------0-------0--3b>--
  PM...       PM      PM      PM...       PM      PM             


2) (No hay motivación, no ves solución...) (x2)


--------------------------------------------------------
--------------------------------------------------------
---------7s8-----8-8-----5-5---------7s8-----8-8-----5--
--0-0-0--5s6--0--6-6--0--3-3--0-0-0--5s6--0--6-6--0--3--
--0-0-0--5s6--0--6-6--0--3-3--0-0-0--5s6--0--6-6--0--3--
--0-0-0--5s6--0--6-6--0--3-3--0-0-0--5s6--0--6-6--0--3--
  PM...       PM      PM      PM...       PM      PM                 


-------
VERSO 2 (Hoy jugamos como si nada...)
-------


Tocar lo mismo que en la parte 2) de la Intro


--------
CHORUS 2 (Acertada o no, debes afrontar...)
--------


Tocar lo mismos que en Chorus 1


-------------
POST-CHORUS 1
-------------


1) (... lárgate de allí)

----------------------------
----------------------------
----------------------------
----------------------------
----------------------------
--0--0-0--1-3--4-3--0--1-3--
  PM....            PM


2) (¡No!) (x8)

-------------------------------
-------------------------------
-------------------------------
--0--0--0--1--3s4--3--0--1--3--
--0--0--0--1--3s4--3--0--1--3--
--0--0--0--1--3s4--3--0--1--3--
  PM.....             PM            


-------------
POST-CHORUS 2
-------------


Guitarra 1 
----------

--------------------
--------------------
----------------10-- (x2)
--7>--9------8------
--5>--7--8>---------
---------8>---------

-------------
-------------
------------- (x2)
--7>--9------
--5>--7--8>--
---------8>--

----------
----------
----------
--7>--9>--
--5>--7>--
----------


Guitarra 2
----------

-----------------------------------------------------------
-----------------------------------------------------------
---------------------------------------------------5--5s7--
--5--5h7----5h7--7-7----5h7--7--7-5----5h7--7-7------------
-----------------------------------------------------------
-----------------------------------------------------------

---------------------------------------------
---------------------------------------------
---------------------------------------------
--5h7--7-7----7-7-7-7-7-7-7-7-7-7-7-7-7-7-7--
---------------------------------------------
---------------------------------------------


-----
FINAL (Antes y después, antes y después,...)
-----


Guitarra 1
----------

Tocar lo mismo que en la parte 2) de la Intro


Guitarra 2
----------

------------------------------
--10--10--10--10--10--10--10--
------------------------------ (Tocar varias veces)
---7---7---7---7---7---7---7--
------------------------------
------------------------------

----------------------------------------------------
----------------------------------------------------
--0h2--2-2----0h2--2-2-0----0h2--2-2----0h2--2-5-7--
----------------------------------------------------
----------------------------------------------------
----------------------------------------------------

----------------------------------------------
----------------------------------------------
--0h2--2-2----0h2--2-2-0----0h2>--2-2--2-5-7--
----------------------------------------------
----------------------------------------------
----------------------------------------------

--10--10--10--10--10--10--10--
--10--10--10--10--10--10--10--
---7---7---7---7---7---7---7-- (Tocar varias veces)
------------------------------
------------------------------
------------------------------

--4--4--4--4--4--4--4--
--4--4--4--4--4--4--4--
--2--2--2--2--2--2--2-- (tocar varias veces)
-----------------------
-----------------------
-----------------------

--3--3--3--3--3--3--3--3s10--
--3--3--3--3--3--3--3--3s10--
--0--0--0--0--0--0--0--------
-----------------------------
-----------------------------
-----------------------------

--10--10--10--10--10--10--12--
--10--10--10--10--10--10--10--
------------------------------ (x3)
------------------------------
------------------------------
------------------------------

--10--10--10--10--10--10-------
--10--10--10--10--10--10--15>--
--------------------------14>-- 
--------------------------12>--
--------------------------12>--
--------------------------12>--


------------------------------------------------------------
------------------------------------------------------------
		   
AcordesyTabs.com © 2008 Acordes y Tablaturas para guitarra. Tabs and Chords for guitar. Aviso Legal - Contacto
El uso de este sitio está sujeto a la aceptación de los términos y condiciones (46 usuarios online)