tablaturas, partituras y acordes para guitarra
Busca por banda/artista:
 
y/o título de la canción:
A B C D E F G H I J K L M N O P Q R S T U V W X Y Z 0 1 2 3 4 5 6 7 8 9 / Top 100 tabs
Categorías
Usuarios
usuario:
Darse de alta
password:
Artistas más visitados
Publicidad
TOP acordes y tablaturas de Hamlet


Estás en: Inicio > Letra H > Acordes y tablaturas de Hamlet > Antes y Después
Antes y Después
de Hamlet
Puntúa este acorde/tab:      
(0.8/5)
Reportar este acorde/tab
  Añadir a tus favoritos
  Imprimir
+ Tabulados de made in spain!                   +
+ (http://mades.kaos.es)                        +
+++++++++++++++++++++++++++++++++++++++++++++++++

[guitarreo distorsionado]

INTRO y versos:
RIFF1:
		|-x---x---x---x-x--x--x-x--x-/-x-x-x-|

 Nota para el bajo:
    |-G#---------A#--|-F----------D#--|-C#---------D#---|-A#--------G#--

 Guitarra:
  D |-8---------/10--|-5---------/3---|-8---------/15---|-10--------/8---
  A |-8---------/10--|-5---------/3---|-8---------/15---|-10--------/8---
  E |-6----------8---|-3----------1---|-6----------13---|-8----------6---

Dime...
RIFF1
...si has pensado en algun momento abandonar
echarte a un lado y nunca mas
volver a recordar

y lo siento si has llegado a tal extremo
sin importar  sin ganas de seguir
olvidado


RIFF2:
E |-3---3-3-5-3---6-|------6---1------------| x4
Ahorra tu ansiedad
Espera libertad
Cada amanecer
es como atardecer

RIFF2:
E |-5---5-5-8-5---10-|------10---3-----------| x4
no hay motivacion
que no vivan por ti
y si no ves salida
l rgate de aqui

RIFF1
Hoy jugamos como si nada con la ilusion...

RIFF2
Acertada o no
debes afrontar...
RIFF3
Echale valor...


RIFF4:
E|-8---8-8-11-12---8/|-8-12---8-11---12---|-8---8-8-11-12-8-6/|-8-12---8-11---12
X6
Pobre sera el hombre que deje que decidan en contra de su voluntad

RIFF5:
D -10-------12--|-8----7-12---7-19--12--|-10------12--|-6----7-14--7---7-14-19
A -10-------12--|-8---------------------|-10------10--|-8---------------------
E -8--------10--|-6---------------------|-8-------10--|-6---------------------

Si por una vez  olvidamos         y en su interior no ignoramos...

RIFF1
...
Transcrita por : Luis David Arranz  --  a28315@aq.upm.es / daarr@usa.net
				http://corbu.aq.upm.es/~a28315
LDAP98
		   
AcordesyTabs.com © 2008 Acordes y Tablaturas para guitarra. Tabs and Chords for guitar. Aviso Legal - Contacto
El uso de este sitio está sujeto a la aceptación de los términos y condiciones (53 usuarios online)