tablaturas, partituras y acordes para guitarra
Busca por banda/artista:
 
y/o título de la canción:
A B C D E F G H I J K L M N O P Q R S T U V W X Y Z 0 1 2 3 4 5 6 7 8 9 / Top 100 tabs
Categorías
Usuarios
usuario:
Darse de alta
password:
Artistas más visitados
Publicidad
TOP acordes y tablaturas de Aerosmith


Estás en: Inicio > Letra A > Acordes y tablaturas de Aerosmith > Walk This Way
Walk This Way
de Aerosmith
Puntúa este acorde/tab:      
(0.5/5)
Reportar este acorde/tab
  Añadir a tus favoritos
  Imprimir
Title: Walk this way
Artist: Aerosmith

Tabbed: Jon Zegar (email: wkgnpimp15@hotmail.com


Riff 1

|---------------------|------------------------|----------------------|---------
|---------------------|------------------------|----------------------|---------
|---------------------|------------------------|----------------------|---------
|--------2--------2---|-------2--------2-----2-|-------2--------2-----|-------2-
|--0-1-2----0-1-2-----|-0-1-2----0-1-2---------|-0-1-2----0-1-2-------|-0-1-2---
|-------------------0-|------------------3-0-1-|------------------0-1-|---------

Riff 2

|----------------------------|---------------------------|                      
|----------------------------|---------------------------|
|--5----------5--------------|------------5--------------|
|--5-5--5-7-5---5-5-6-5-7-5--|-----5-7--5---5-5-6-5-7-5--|
|--3-------------------------|---------------------------|
|----------------------------|--6------------------------|

Riff 3

|------------------------------|------------------------------|
|------------------------------|--------------10--10--10------|
|--------------5---------------|---------------0---0---0------|
|-----5--5-7-5---5-5-6-5-7-5---|-----5--5-7-------------------|
|------------------------------|------------------------------|
|--6---------------------------|--6---------------------------|


well there you go.. im almost positive its all correct just not to sure about
a few of the notes. other then that there u go..have fun with it!
		   
AcordesyTabs.com © 2008 Acordes y Tablaturas para guitarra. Tabs and Chords for guitar. Aviso Legal - Contacto
El uso de este sitio está sujeto a la aceptación de los términos y condiciones (21 usuarios online)