tablaturas, partituras y acordes para guitarra
Busca por banda/artista:
 
y/o título de la canción:
A B C D E F G H I J K L M N O P Q R S T U V W X Y Z 0 1 2 3 4 5 6 7 8 9 / Top 100 tabs
Categorías
Usuarios
usuario:
Darse de alta
password:
Artistas más visitados
Publicidad
TOP acordes y tablaturas de Bon Jovi


Estás en: Inicio > Letra B > Acordes y tablaturas de Bon Jovi > Love For Sale
Love For Sale
de Bon Jovi
Puntúa este acorde/tab:      
(0.4/5)
Reportar este acorde/tab
  Añadir a tus favoritos
  Imprimir
Artist:  Bon Jovi
Song: Love For Sale
Written by: Jon Bon Jovi & Riche Sambora
Album: New Jersey

This is an awesome song to jam to.  For the guitar solos, if you know
 the minor pentatonic scales, you can use those to improv on this 
song, since it’s got a bluesy sound.  –It’s in the key of E.  
It’s a great tune.  I welcome all questions and comments:  
SteelCowboy86@hotmail.com
Enjoy!


VERSE RIFF:
  E                 A                 B
E|----------------------------------------------------------|
B|----------------------------------------------------------|
G|--------------------2-2-2-2--2-2-2-2--4-4-4-4--4-4-4-4----|
D|--2-2---2--2-2---2--2-2-4-2--2-2-4-2--4-4-6-4--4-4-6-4----|
A|--2-2-4-2--2-2-4-2--0-0-0-0--0-0-0-0--2-2-2-2--2-2-2-2----|
E|--0-0-0-0--0-0-0-0----------------------------------------|


CHORUS RIFF:
  A                 E                 A
E|--------------------------------------------------------|
B|--------------------------------------------------------|
G|--2-2-2-2--2-2-2-2--------------------2-2-2-2--2-2-2-2--|
D|--2-2-4-2--2-2-4-2--2-2---2--2-2---2--2-2-4-2--2-2-4-2--|
A|--0-0-0-0--0-0-0-0--2-2-4-2--2-2-4-2--0-0-0-0--0-0-0-0--|
E|--------------------0-0-0-0--0-0-0-0--------------------|
   B
E|----------------------|
B|----------------------|
G|--4-4-4-4--4-4-4-4----|
D|--4-4-6-4--4-4-6-4----|
A|--2-2-2-2--2-2-2-2----|
E|----------------------|


Intro  (verse riff) E - A – B       


VERSE 1:

E
Well I wake up this morning I rolled out of bed

A
I felt like a dog who's been kicked in the head  

B
Checked out my mail there was letter that read

E
Love for sale, love for sale


VERSE 2:

E
I picked up the phone I called everyone I could          

A
I let my fingers do the walking through the telephone book     

B 
You can't catch a fish if you ain't got the hook

E
Love for sale, love for sale


CHORUS:

A
Send up a signal throw me a line 

E
Somebody explain this funny Valentine    

A
It might not be signal but it sure ain't a crime    

B
I'm one step from crazy and two steps behind

         
VERSE 3:

E
I called Lt. Columbo from my TV set                

A
I've tried the Dating Game I haven't found her yet     

B
I'm hoping that she's looking like a Penthouse Pet

E
Love for sale, love for sale



(Under the solo, the verse, then the chorus is played…)



VERSE 4:

E
We've been living together 3 years,    

A
2 hours, 20 minutes maybe four hundred beers     

B
You can't shop for love when you're shopping at Sears

E
Love for sale, love for sale

        
VERSE 5:

E
I guess I've learnt my lesson it was easy to see 

A
My old lady she played this joke on me

B
I never looked where I forgot it would be

E
Love for sale, love for sale


End with the bottom E scale.  
It’s what Richie does and it sounds cool…


E|--3-0---------------------0-----|
B|------3-0-----------------0-----|
G|----------2-0-------------1-----|
D|--------------2-0---------2-----|
A|------------------2-0-----2-----|
E|----------------------3-0-0-----|


"Love for Sale"
		   
AcordesyTabs.com © 2008 Acordes y Tablaturas para guitarra. Tabs and Chords for guitar. Aviso Legal - Contacto
El uso de este sitio está sujeto a la aceptación de los términos y condiciones (26 usuarios online)