tablaturas, partituras y acordes para guitarra
Busca por banda/artista:
 
y/o título de la canción:
A B C D E F G H I J K L M N O P Q R S T U V W X Y Z 0 1 2 3 4 5 6 7 8 9 / Top 100 tabs
Categorías
Usuarios
usuario:
Darse de alta
password:
Artistas más visitados
Publicidad
TOP acordes y tablaturas de Bon Jovi


Estás en: Inicio > Letra B > Acordes y tablaturas de Bon Jovi > One Wild Night
One Wild Night
de Bon Jovi
Puntúa este acorde/tab:      
(0.3/5)
Reportar este acorde/tab
  Añadir a tus favoritos
  Imprimir
ONE WILD NIGHT


 INTROCHORUS

    C5                           Ab5

|---------------------------------|----------------------------|
|---------------------------------|----------------------------| 
|---------------------------------|----------------------------|
|----5------5---------------------|----------------------------|
|----3------3------------------6--|----6------X---6----6-------|
|--------------------3--6------4--|----4------X---4----4-------|
 
      Bb5                          C5                                           

|---------------------------------|----------------------------|----------------
|---------------------------------|----------------------------|----------------
|---------------------------------|----------------------------|----------------
|----3------3---------------------|----------------------------|--5---5---------
|----1------1--------------1---3--|---3-----1----------1-------|--3---3-----1--3
|----------------------3----------|-------------3--3-------3---|----------------

   Bb5                         C5

|----------------------------|----------------------------|
|----------------------------|----------------------------|
|----------------------------|----------------------------|
|---3-----3------------------|----------------------------|
|---1-----1-----------1---3--|---3-----1-----------1------|
|-----------------3----------|--------------3---3------3--|



 play this over the beginning of each verse from

 Verse1- hot night the natives.....a witch off her broom
 Verse2- as much fun as you can..... on my knees forever tonight.....


|-----------------------|---------------------|---------------------|-----------
|-----------------------|---------------------|---------------------|-----------
|-----------------------|---------------------|---------------------|-----------
|-----------------------|------------1--------|---------------------|-----------
|----3----3--------1--3-|----3----3------3--1-|---3--3---------1--3-|----3---1--
|---------------3-------|---------------------|-------------3-------|-----------


.....and then play



|--------------------------------|----------------------------------|-----------
|--------------------------------|----------------------------------|-----------
|--------------------------------|----------------------------------|-----------
|--------------------------------|--------------------1-------------|-----------
|-----3------3----------1---3----|------3-------1----------3-----1--|------3----
|--------------------3-----------|----------------------------------|-----------

|---------------------------|-----------------------------|
|---------------------------|-----------------------------|
|---------------------------|-----------------------------|
|----------------1----------|-----------------------------|
|----3------1---------3---1-|--3-------------------------|
|---------------------------|-----------------------------|



verse 1

its a hot night the natives are restless
were sweating by the light of the moon
theres a voodoo mo-jo grooving at the door oh
that could knock a with off her broom we 
slithered on in and shed our skins made our way
into the bump and the grind and passing by she gives
me the eye so i stop to give her a light

Chorus

na na na na na na na na na na na na na alright

one wild night blinded by the moonlight one wild night
twenty four hours of midnight i steped into the twilight zone 
and she left my heart with vertigo
one wild one wild one wild night

verse2

having as much fun as you can in clothes marguerita
had me feeling alright it just might be that i found 
religion i've been on my knees forever tonight i
was rolling in bones with jimmy no dice gonna take 
him for a coupla weeks pay man if you lose this roll
i'll take your girl for your home so i stop your not 
gonna believe who comes walking out (one wild night)



Solo (one of the very few Bon Jovi solo's which are a peice of piss to play)

|-------------------------------------------------------------------------------
|--413----------1113---------1311-------813-------1316----1316---1316--13
|-------------------------------------------------------------------------------
|-------------------------------------------------------------------------------
|-------------------------------------------------------------------------------
|-------------------------------------------------------------------------------

|-------------------------------------------------------------------------------
|-813--------------------------------------------------------------------------
|---------------1012----10-----78----7-------35-----3------------------------
|-------------------------------------------------------------35------3--------
|-------------------------------------------------------------------------------
|-------------------------------------------------------------------------------

		   
AcordesyTabs.com © 2008 Acordes y Tablaturas para guitarra. Tabs and Chords for guitar. Aviso Legal - Contacto
El uso de este sitio está sujeto a la aceptación de los términos y condiciones (24 usuarios online)