tablaturas, partituras y acordes para guitarra
Busca por banda/artista:
 
y/o título de la canción:
A B C D E F G H I J K L M N O P Q R S T U V W X Y Z 0 1 2 3 4 5 6 7 8 9 / Top 100 tabs
Categorías
Usuarios
usuario:
Darse de alta
password:
Artistas más visitados
Publicidad
TOP acordes y tablaturas de Bon Jovi


Estás en: Inicio > Letra B > Acordes y tablaturas de Bon Jovi > One Wild Night
One Wild Night
de Bon Jovi
Puntúa este acorde/tab:      
(0.5/5)
Reportar este acorde/tab
  Añadir a tus favoritos
  Imprimir
"One Wild Night" -- Bon Jovi
Tabbed by Kyle

Standard Tuning

Intro

Both Guitars
|-------------------------------------------------------------------------------
|-------------------------------------------------------------------------------
|-------------------------------------------------------------------------------
|------------------------------------------------------------1-1---1------------
|--3-3-----3--------------1-1-----1-3-3-1-----1----3-3-----3-----3---3-1-1-1----
|------3-3---4-4-3-4~-4-3-----3-3---------3-3---3------3-3-------------------3-3

================================================================================
Verse

Both Guitars
|--------------------------------------------------|
|--------------------------------------------------|
|--------------------------------------------------|
|------------------1-------------------------------|
|--3-3-----1-3-3-----3-1--3-3-----1-3-3-1-----1----|
|------3-3-------3------------3-3---------3-3---3--|

================================================================================
Chorus

Guitar 1
Play Intro

Guitar 2
|--------------------------|
|--------------------------|
|--5-----3--5--5--8--3--5--|
|--5--6--3--5--5--8--3--5--|
|--3--6--1--3--3--6--1--3--|
|-----4--------------------|

================================================================================
"One wild, one wild, one wild, one wild night..."

Guitar 1
|---------------------|
|--8-6----------------|
|------8-7-5----------|
|------------8-5------|
|----------------8-6--|
|---------------------|

Guitar 2
|------|
|------|
|--3~--|
|--3~--|
|--1~--|
|------|

================================================================================
Bridge

"Na na, nanana, na na, na-na naaa.."

Both Guitars
|--------|
|--------|
|--5-5~--|
|--5-5~--|
|--3-3~--|
|--------|

================================================================================
Solo

Guitar 1
|--------------------------------------------------------------------------|
|--8/11/13-13~-1311-11/13-13~-1311-11/13-11~-11~-118-8/11/13-13~-1311--|
|--------------------------------------------------------------------------|
|--------------------------------------------------------------------------|
|--------------------------------------------------------------------------|
|--------------------------------------------------------------------------|

|-------------------------------------------------------------------------------
|--13/16-1613-13/16-1613-13/16-1613-13/16-1613--13/11-11~-11~-118-8/11/13~-
|-------------------------------------------------------------------------------
|-------------------------------------------------------------------------------
|-------------------------------------------------------------------------------
|-------------------------------------------------------------------------------

Guitar 2
Play Intro, then "one wild, one wild...etc" part

================================================================================
This is pretty accurate...though not too detailed.  They throw in a lot
of harmonics and fills and stuff.  Especially on the bridge and verse.
Just have fun with it, really...it's a great song.
E-mail kyle_gumby@hotmail.com with any suggestions or questions or such.

#^(#)  .. Bend to note in ( )
#^(#)r .. Bend to note in ( ) and release to original note
h ....... Hammer on
p ....... Pull off
~ ....... Vibrato/hold note
( ) ..... Held only for a second or hardly heard due to
          feedback, other notes picked, etc.
/........ Slide up the neck (Towards pickups)
........ Slide down the neck (Away from pickups)
<> ...... Harmonic
pm ...... Palm mute
		   
AcordesyTabs.com © 2008 Acordes y Tablaturas para guitarra. Tabs and Chords for guitar. Aviso Legal - Contacto
El uso de este sitio está sujeto a la aceptación de los términos y condiciones (12 usuarios online)