tablaturas, partituras y acordes para guitarra
Busca por banda/artista:
 
y/o título de la canción:
A B C D E F G H I J K L M N O P Q R S T U V W X Y Z 0 1 2 3 4 5 6 7 8 9 / Top 100 tabs
Categorías
Usuarios
usuario:
Darse de alta
password:
Artistas más visitados
Publicidad
TOP acordes y tablaturas de Bon Jovi


Estás en: Inicio > Letra B > Acordes y tablaturas de Bon Jovi > Say It Isnt So
Say It Isnt So
de Bon Jovi
Puntúa este acorde/tab:      
(0.5/5)
Reportar este acorde/tab
  Añadir a tus favoritos
  Imprimir
Say it isn't so

G5- X X 5 7 X XDadd11-  X 5 4 O X X       Em7-  X X O O O O 
D5- X 5 7 X X XD/F - X X 4 7 X X       Em6-  X 4 X O O O
C5-  X 3 5 X X XE5-   X X 2 4 X X
D-  X  X X 7 7 XAm/G-  3 X 2 2 1 O

Cadd-  X 3 2 O 3 OCm- X 3 5 5 4 3 
C*-  X X X 5 5 XEm-  X X 2 O O O
Am- X O 2 2 OEm ( maj7 )-  X X 1 O O O

There are 2 guitar parts for this song as Richie Plays most of it Jon comes in s

Intro

Guitar 2 G5D5C5

Guitar 1(tab) ------------------------------------------------------------------
       -------3------3------3-------------------3-------3------3----------------
       -------0------0------0-------------------0--------0-----0----------------
             ---------------------------4_h_5----------------------------4_h_5--
       -------------------------------------------------------------------------


Guitar 2G5D             Cadd9

Guitar 1 (tab )----------------------------------------------------------------0
       8-------8-------8---------7---7---7---7---7---7---7---------3
       7-------7-------7---------7---7---7---7---7---7---7---------0
       -----------------------------------------------------------------0
       -----------------------------------------------------------------2
                       ---------------------------------------------------------

Verse 1

           G5D             C*            
I just can't believe, it was all a lie, 

              G5D             C*                         
no man in the moon,just a bright light in the sky,

G5D             C*                                C
I hear Disney land,might loose mickey mouse,

                Am                                                  C
In some giant hostile corp-rate shakeing  tell me it's a night mare please wake 

G5D             C*            

Verse 2 ( same chords as V1 )

I found a book of matches, to a place we've never been,
How come you hang the phone up, the minute I walk in,
Last night I had this dream Iwas loosing you,
I woke up in cold sweat shaking first degree my heart is breaking

Chorus

Dadd11             G5                                              D/F
Say it isn't so                ( tell me its not true )

                     E5                                                    C5  
Say it isn't so                  ( I believe in you )

                       Am                                                    Am/
Tell me it's a lie                ( I don't need no proof )

         C5                 Cm
Say every thing's alright                        ( say it isn't so )


G5D5Cadd9


Verse 2 ( same chords as previous verses )

Super man don't fly they did all with strings
Elvis Presley died they deep fried the king
And some tacky cheesy bathing beauty
Dancing on the beach in a bad b movie

Chorus ( same chords )

Instrumentle

EmEm(maj7)Em7Em6

EmEm(maj7)Em7Em6

Chorus until end

(That little flick that Richie does when it all goes quite goes like this)

-----------------------------------------------------------------------------
----------------------------------------------------------------------------
--------------0-------------0----------------0-----------------------------
----------4--------------4----------------4--------------4---------------0
-------5--------------------------------------------------------------------
----------------------------------------------------------------------------

Any comments or suggestions please email

I will be placing some more songs up from Bon Jovi new album Crush
but if you have any requests off it please email JL_oddie@hotmail.com








		   
AcordesyTabs.com © 2008 Acordes y Tablaturas para guitarra. Tabs and Chords for guitar. Aviso Legal - Contacto
El uso de este sitio está sujeto a la aceptación de los términos y condiciones (19 usuarios online)